For All Of My Life Tabs by Mymp

Higher Praise - Guitar Chords, Lyrics  GuitarTabs -  Praise nad Worship Music And Christian Songs

Higher Praise - Guitar Tabs, Guitar Chords, Lyrics
   Lyrics, Chords And Tabs
   Popular Lyrics Chords Tab
   Power Point Lyrics
   Praise & Worship Music
   Christian Music Videos
   15900 Videos & Audios
   Midi Files
   Worship Questions
   Christmas Chords, Lyrics
   Lyrics, Chords Tabs Rated

Sermon Outlines And Audio Sermons
   9344 Sermon Outlines
   N.T. Sermon Outlines
   O.T. Sermon Outlines
   Special Guest Outlines
   10.000 Illustrations
   Sunday School Studies
   Bible College Studies
   Greatest Preachers
   Bible Research Tools
Audio Sermons
   2895 Audio Sermons
   85 Sermon Videos
   291 Special Guests Serm

   Complete Audio Bible
Higher Praise Sunday School Teaching
   Children's NT Studies
   Children's OT Studies

   98 Children's Midis
   Gospel For Kids Movie
   Children's JESUS Film
Higher Praise Christian Video Library ,Videos
   Christian Television
   TBN TV Live
   15,000 Videos - HP Tube
   712 Youth Music Vids
  Christian Video Library
   Praise Videos #1 & #2
   85 Sermon Videos
   Prophecy Film -Videos
   JESUS Film -Video
   Childrens JESUS Film
   Gospel For Kids Movie
   Passion Of The Christ
   Noah, Sodom, Sinai, Ark
   Tsunami Videos Photos
News And Information
   Testimonies
   Submit Lyrics, Tabs, Serm
   10.000 Illustrations
   Bible College Course
   Clipart & Web Graphics
   Greatest Preachers
   Complete Talking Bible
   Christian Chat Rooms
   Links Church Resource
   HP Statement Of Faith
Download Clipart
   Audio Sermons
   Clipart & Web Graphics
   Church Administration
   Bible Study Software
   Screen Savers Software
   Verse A Day Software
   Educational Games
   Trade Center Photos

   Soft. Search Engine
Higher Praise News
   Current News
    Archived News
   Submit News
   Newsletter   Higher Praise Interact Prayer
   Prayer For All Needs
   
Submit Lyrics, Sermons
   
Contact Higher Praise
   
Advertising 
   Privacy Policy
//
He Died For You,  Click For Answer! This Is Who Jesus Is Video

'
 
0-9 A B C D E F G H I J K L M N O P Q R S T U V W X Y Z
.

//
Click For Printable...Version Of This File
 

For All Of My Life


by Mymp

Share |



INTRO (2x):
e
----0--------0---------0----------------

B
------4--------4---------4--------------

G
--4--------4---------4---------4-----4--

D
-----------------------------2----------

A
-0-------2---------0-------2-------x----

E
---------------------------------4------


VERSE 1:

though i've..
e
----0---------
--------0--------
--------0------
---------------

B
------4-------
---------4-------
---------4-----
---------------

G
--4-----------
-----4-----------
-----4---------
-------4-----4-

D
--------------
-----------------
---------------
-----2---------

A
-0------------
---2-------------
---0-----------
---2-------x---

E
--------------
-----------------
---------------
---------4-----

   tried before to tell him, all the feelings i have for him in my


e
----0------
------0-----
--------0-----
---------------

B
------4----
-------4----
---------4----
---------------

G
--4--------
---4--------
-----4--------
------4-----4--

D
-----------
------------
--------------
----2----------

A
-0---------
-2----------
---0----------
--2-------x----

E
-----------
------------
--------------
--------4------
   
heart.......


every...
e
----0----------
---------0-----
---------0-------
------------------

B
------4--------
-----------4---
----------4------
------------------

G
--4------------
------4--------
------4----------
----------4-----4-

D
---------------
---------------
-----------------
--------2---------

A
-0-------------
----2----------
----0------------
------2-------x---

E
---------------
---------------
-----------------
------------4-----

   time that i come near him, i just lose my nerves as i've done from the


e
------------------------------

B
-----3-5-----3-5------3-5--6--

G
--1--3-5--1--3-5---1--3-5--5--

D
--2-------2--------2----------

A
------------------------------

E
------------------------------

start...


CHORUS:

cause every little..
e
-------0-0-----
--------0-0-------

B
-------0-0-----
---5----5-5-------

G
--4----4-4-----
---4----4-4-------

D
--4----4-4-----
---2----2-2-------

A
--2----2-2-----
------------------

E
---------------
------------------

    thing he does is magic... everything he

e
-------0-0--------
--------0-0-------

B
-------0-0--------
---5----5-5-------

G
--4----4-4--------
---4----4-4-------

D
--4----4-4--------
---2----2-2-------

A
--2----2-2--------
------------------

E
------------------
------------------

    does just turns me on........even though my


e
-------0-0--------
--------0-0-------

B
-------0-0--------
---5----5-5-------

G
--4----4-4--------
---4----4-4-------

D
--4----4-4--------
---2----2-2-------

A
--2----2-2--------
------------------

E
------------------
------------------

    life before was   tragic.....now i know my

e
-------0-0--------
--------0-0-------

B
-------0-0--------
---5----5-5-------

G
--4----4-4--------
---4----4-4-------

D
--4----4-4--------
---2----2-2-------

A
--2----2-2--------
------------------

E
------------------
------------------

   love for  him     goes...


e
------------------------------

B
-----2-4-----2-4------2-4--5--

G
--1--2-4--1--2-4---1--2-4--4--

D
--2-------2--------2----------

A
------------------------------

E
------------------------------

  on...


(REPEAT INTRO)

VERSE 2:

do i...
e
----0------------
------0------
-------0--------
-----------------

B
------4----------
-------4-----
--------4-------
-----------------

G
--4--------------
---4---------
----4-----------
------4-----4----

D
-----------------
-------------
----------------
----2------------

A
-0---------------
-2-----------
--0-------------
--2-------x------

E
-----------------
-------------
----------------
--------4--------

  have to tell the  story of a    thousand rainy    days since


e
----0--------
------0----
-------0-----
----------------

B
------4------
-------4---
--------4----
----------------

G
--4----------
---4-------
----4--------
------4-----4---

D
-------------
-----------
-------------
----2-----------

A
-0-----------
-2---------
--0----------
--2-------x-----

E
-------------
-----------
-------------
--------4-------

   we first met...


it's a...
e
----0-------
------0-------
---------0-------
-----------------

B
------4-----
-------4------
----------4------
-----------------

G
--4---------
---4----------
------4----------
------4-----4----

D
------------
--------------
-----------------
----2------------

A
-0----------
-2------------
----0------------
--2-------x------

E
------------
--------------
-----------------
--------4--------

   big enough  umbrella but it's always me who ends up



getting...
e
------------------------------

B
-----3-5-----3-5------3-5--6--

G
--1--3-5--1--3-5---1--3-5--5--

D
--2-------2--------2----------

A
------------------------------

E
------------------------------

   wet....


(REPEAT CHORUS 2x)


e
-------2----
------2-2-------

B
-------0----
---5--5-5-------

G
---4---4----
---4--4-4-------

D
---4---4----
----------------

A
------------
----------------

E
------------
----------------

  on...


BRIDGE:

e
-------2-2---
----2-2-----
----2-2----
-----2-2---

B
-------0-0---
-5--5-5-----
----0-0----
--5--5-5---

G
---4---4-4---
-4--4-4-----
-4--4-4----
--4--4-4---

D
---4---4-4---
------------
-4--4-4----
-----------

A
-------------
------------
-----------
-----------

E
-------------
------------
-----------
-----------

i resolve to    call him up a thousand  times a day


e
-------2-2---
----2-2-----
---------2-2---
----------2-2---

B
-------0-0---
-5--5-5-----
---------0-0---
-------5--5-5---

G
---4---4-4---
-4--4-4-----
------4--4-4---
-------4--4-4---

D
---4---4-4---
------------
------4--4-4---
----------------

A
-------------
------------
---------------
----------------

E
-------------
------------
---------------
----------------

and ask him if  he'll marry me in some old fashion way....



but my..
e
-------0-0-----
--------0-0-------

B
-------0-0-----
---5----5-5-------

G
--4----4-4-----
---4----4-4-------

D
--4----4-4-----
---2----2-2-------

A
--2----2-2-----
------------------

E
---------------
------------------

   silent fears have gripped me long

e
-------0-0-----
--------0-0-------

B
-------0-0-----
---5----5-5-------

G
--4----4-4-----
---4----4-4-------

D
--4----4-4-----
---2----2-2-------

A
--2----2-2-----
------------------

E
---------------
------------------

  before i reach the phone.. long 

e
-------0-0-----

B
-------0-0-----

G
--4----4-4-----

D
--4----4-4-----

A
--2----2-2-----

E
---------------

  before my tongue has stripped me

e
---------0-0-----

B
-----5---5-5-----

G
-----4---4-4-----

D
-----2---2-2-----

A
-----------------

E
-----------------

must i always be a--


e
------------------------------

B
-----2-4-----2-4------2-4--5--

G
--1--2-4--1--2-4---1--2-4--4--

D
--2-------2--------2----------

A
------------------------------

E
------------------------------

--lone

(REPEAT CHORUS 2x)


this one is also repeated 2x:

e
-------0-0-----
--------0-0-------

B
-------0-0-----
---5----5-5-------

G
--4----4-4-----
---4----4-4-------

D
--4----4-4-----
---2----2-2-------

A
--2----2-2-----
------------------

E
---------------
------------------

 every lil thing...every lil thing he does


e
-------0-0-----
--------0-0-------

B
-------0-0-----
---5----5-5-------

G
--4----4-4-----
---4----4-4-------

D
--4----4-4-----
---2----2-2-------

A
--2----2-2-----
------------------

E
---------------
------------------

every lil he         does is

e
------------------------------

B
-----3-5-----3-5------3-5--6--

G
--1--3-5--1--3-5---1--3-5--5--

D
--2-------2--------2----------

A
------------------------------

E
------------------------------

  magic, magic, magic... 
 


/
How To Set Up Higher Praise As Your Home Page
Copyright 1999, Higher Praise HigherPraise,Inc. All rights reserved. Terms of Use

Enjoy A Life Changing Experience

 
 
 
HigherPraise, Higher Praise, HigherPraise, Higher Praise, HigherPraise

Members..Sign Up. LogIn

 
 

Higher Praise Other Sites
 
 

HigherPraise.org/
Praise And Worship
www.higherpraise.org

HigherPraise.net
Christian Resources
www.higherpraise.net

HigherPraiseTube.com
Videos And Audios
www.higherpraisetube.com.


ChristianLyrics.org

Lyrics And Chrords
www.christianlyrics.org

ChristianChordsLyrics

Lyrics And Chrords
www.christianchordslyrics.com

ChristianChordLyrics

Lyrics And Chrords
www.christianchordlyrics.com

WorshipLyrics.org
10.000 Illustrations
www.worshiplyrics.org

WorshipLyrics.net
10.000 Illustrations
www.worshiplyrics.net

PraiseLyrics.com
PowerPoint Lyrics

www.praiselyrics.com

PraiseLyrics.org
PowerPoint Lyrics

www.praiselyrics.org

1GodTube.com
Chistian Videos

www1godtube..com

OneGodTube.com
Chistian Videos

www.onegodtube..com

 

/
Copyright 1999 - 2019, Higher Praise™ HigherPraise™,Inc. All rights reserved. Terms of Use