Chick Magnet Tabs by Mxpx

Higher Praise - Guitar Chords, Lyrics  GuitarTabs -  Praise nad Worship Music And Christian Songs

Higher Praise - Guitar Tabs, Guitar Chords, Lyrics
   Lyrics, Chords And Tabs
   Popular Lyrics Chords Tab
   Power Point Lyrics
   Praise & Worship Music
   Christian Music Videos
   15900 Videos & Audios
   Midi Files
   Worship Questions
   Christmas Chords, Lyrics
   Lyrics, Chords Tabs Rated

Sermon Outlines And Audio Sermons
   9344 Sermon Outlines
   N.T. Sermon Outlines
   O.T. Sermon Outlines
   Special Guest Outlines
   10.000 Illustrations
   Sunday School Studies
   Bible College Studies
   Greatest Preachers
   Bible Research Tools
Audio Sermons
   2895 Audio Sermons
   85 Sermon Videos
   291 Special Guests Serm

   Complete Audio Bible
Higher Praise Sunday School Teaching
   Children's NT Studies
   Children's OT Studies

   98 Children's Midis
   Gospel For Kids Movie
   Children's JESUS Film
Higher Praise Christian Video Library ,Videos
   Christian Television
   TBN TV Live
   15,000 Videos - HP Tube
   712 Youth Music Vids
  Christian Video Library
   Praise Videos #1 & #2
   85 Sermon Videos
   Prophecy Film -Videos
   JESUS Film -Video
   Childrens JESUS Film
   Gospel For Kids Movie
   Passion Of The Christ
   Noah, Sodom, Sinai, Ark
   Tsunami Videos Photos
News And Information
   Testimonies
   Submit Lyrics, Tabs, Serm
   10.000 Illustrations
   Bible College Course
   Clipart & Web Graphics
   Greatest Preachers
   Complete Talking Bible
   Christian Chat Rooms
   Links Church Resource
   HP Statement Of Faith
Download Clipart
   Audio Sermons
   Clipart & Web Graphics
   Church Administration
   Bible Study Software
   Screen Savers Software
   Verse A Day Software
   Educational Games
   Trade Center Photos

   Soft. Search Engine
Higher Praise News
   Current News
    Archived News
   Submit News
   Newsletter   Higher Praise Interact Prayer
   Prayer For All Needs
   
Submit Lyrics, Sermons
   
Contact Higher Praise
   
Advertising 
   Privacy Policy
//
He Died For You,  Click For Answer! This Is Who Jesus Is Video

'
 
0-9 A B C D E F G H I J K L M N O P Q R S T U V W X Y Z
.

//
Click For Printable...Version Of This File
 

Chick Magnet


by Mxpx

Share |



I decided to write a whole tab for the Mxpx song entitled Chick magnet.
I have included the Lead Bass Part, and the Rhythm Guitar Part. I have 
checked this many times and i know it is accurate.
Enjoy.




CHICK MAGNET (LEAD BASS)
As recorded by MxPx



I tabbed this one my self. This is Completely accurate, because i have 
played a long w/ the song many times, and corrected everything. This is 
exactly how it goes. I did the lead bass first, then included the rhythm 
down at the bottom.
Enjoy!!


Gtr I (B E A D G B E) - 'Bass' Made for a 7-string, but you can just drop 
the low B, because it is not used.


  Q=168
1/4   4/4
  Gtr I

-----
--------------
--------------
--------------
--------------

-----
--------------
--------------
--------------
--------------

-----
--------------
--------------
--------------
--------------

-----
--------------
--------------
--------------
--------------

---0-
-3--2--0------
------------0-
-3--2--0------
------------0-

-----
----------3-0-
-1--0--1--3---
----------3-0-
-1--0--1--3---

-----
--------------
--------------
--------------
--------------



--------------
--------------
--------------
--------------

--------------
--------------
--------------
--------------

--------------
--------------
--------------
--------------

--------------
--------------
--------------
--------------

-3--2--0------
------------0-
-3--2--0------
------------0-

----------3-0-
-1--0--1--3---
----------3-0-
-1--0--1--3---

--------------
--------------
--------------
--------------



--------------
--------------
--------------
--------------

--------------
--------------
--------------
--------------

--------------
--------------
--------------
--------------

--------------
--------------
--------------
--------------

-3--2--0------
------------0-
-3--2--0------
------------0-

----------3-0-
-1--0--1--3---
----------3-0-
-1--0--1--3---

--------------
--------------
--------------
--------------



--------------
--------------
--------------
--------------

--------------
--------------
--------------
--------------

--------------
--------------
--------------
--------------

--------------
--------------
--------------
--------------

-3--2--0------
------------0-
-3--2--0------
------------0-

----------3-0-
-1--0--1--3---
----------3-0-
-1--0--1--3---

--------------
--------------
--------------
--------------



--------------
--------------
--------------
--------------

--------------
--------------
--------------
--------------

--------------
--------------
--------------
--------------

--------------
--------------
--------------
--------------

-3--2--0------
------------0-
-3--2--0------
------------0-

----------3-0-
-1--0--1--3---
----------3-0-
-1--0--1--3---

--------------
--------------
--------------
--------------



--------------
--------------
--------------
--------------

--------------
--------------
--------------
--------------

--------------
--------------
--------------
--------------

--------------
--------------
--------------
--------------

-3--2--0------
------------0-
-3--2--0------
------------0-

----------3-0-
-1--0--1--3---
----------3-0-
-1--0--1--3---

--------------
--------------
--------------
--------------



--------------
--------------
--------------
--------------

--------------
--------------
--------------
--------------

--------------
--------------
--------------
--------------

--------------
--------------
--------------
--------------

-3--2--0------
------------0-
-3--2--0------
------------0-

----------3-0-
-1--0--1--3---
----------3-0-
-1--0--1--3---

--------------
--------------
--------------
--------------



-------------
-------------
-------------
-------------

-------------
-------------
-------------
-------------

----------0--
-------------
----------0--
-------------

----2--3-----
-------------
----2--3-----
-------------

-3-----------
-------------
-3-----------
-------------

-------------
-1--0--1--3--
-------------
-1--0--1--3--

-------------
-------------
-------------
-------------



-------------
-------------
-------------
-------------

-------------
-------------
-------------
-------------

----------0--
-------------
----------0--
-------------

----2--3-----
-------------
----2--3-----
-------------

-3-----------
-------------
-3-----------
-------------

-------------
-1--0--1--3--
-------------
-1--0--1--3--

-------------
-------------
-------------
-------------



-------------
-------------
-----------------
---------------

-------------
-------------
-----------------
---------------

-------------
-------------
-----------------
---------------

-------------
-------------
-3-3-3-3-3-3-3-3-
-3-3-3-3-------

-0--0--0--0--
-0--0--0--0--
-----------------
---------3-----

-------------
-------------
-----------------
------------3--

-------------
-------------
-----------------
---------------



-------------
-------------
-----------------
---------------

-------------
-------------
-----------------
---------------

-------------
-------------
-----------------
---------------

-------------
-------------
-3-3-3-3-3-3-3-3-
-3-3-3-3-------

-0--0--0--0--
-0--0--0--0--
-----------------
---------3-----

-------------
-------------
-----------------
------------3--

-------------
-------------
-----------------
---------------



-------------
-------------
-----------------
---------------

-------------
-------------
-----------------
---------------

-------------
-------------
-----------------
---------------

-------------
-------------
-3-3-3-3-3-3-3-3-
-3-3-3-3-------

-0--0--0--0--
-0--0--0--0--
-----------------
---------3-----

-------------
-------------
-----------------
------------3--

-------------
-------------
-----------------
---------------



-------------
-------------
-----------------
-----------------

-------------
-------------
-----------------
-----------------

-------------
-------------
-----------------
-----------------

-------------
-------------
-----------------
-----------------

-0--0--0--0--
-0--0--0--0--
-----------------
-----------------

-------------
-------------
-3-3-3-3-3-3-3-3-
-3-3-3-3-3-3-3-3-

-------------
-------------
-----------------
-----------------



--------------
--------------
--------------
--------------

--------------
--------------
--------------
--------------

--------------
--------------
--------------
--------------

--------------
--------------
--------------
--------------

-3--2--0------
------------0-
-3--2--0------
------------0-

----------3-0-
-1--0--1--3---
----------3-0-
-1--0--1--3---

--------------
--------------
--------------
--------------



--------------
--------------
--------------
--------------

--------------
--------------
--------------
--------------

--------------
--------------
--------------
--------------

--------------
--------------
--------------
--------------

-3--2--0------
------------0-
-3--2--0------
------------0-

----------3-0-
-1--0--1--3---
----------3-0-
-1--0--1--3---

--------------
--------------
--------------
--------------



--------------
--------------
--------------
--------------

--------------
--------------
--------------
--------------

--------------
--------------
--------------
--------------

--------------
--------------
--------------
--------------

-3--2--0------
------------0-
-3--2--0------
------------0-

----------3-0-
-1--0--1--3---
----------3-0-
-1--0--1--3---

--------------
--------------
--------------
--------------



--------------
--------------
--------------
--------------

--------------
--------------
--------------
--------------

--------------
--------------
--------------
--------------

--------------
--------------
--------------
--------------

-3--2--0------
------------0-
-3--2--0------
------------0-

----------3-0-
-1--0--1--3---
----------3-0-
-1--0--1--3---

--------------
--------------
--------------
--------------



--------------
--------------
--------------
--------------

--------------
--------------
--------------
--------------

--------------
--------------
--------------
--------------

--------------
--------------
--------------
--------------

-3--2--0------
------------0-
-3--2--0------
------------0-

----------3-0-
-1--0--1--3---
----------3-0-
-1--0--1--3---

--------------
--------------
--------------
--------------



--------------
--------------
--------------
--------------

--------------
--------------
--------------
--------------

--------------
--------------
--------------
--------------

--------------
--------------
--------------
--------------

-3--2--0------
------------0-
-3--2--0------
------------0-

----------3-0-
-1--0--1--3---
----------3-0-
-1--0--1--3---

--------------
--------------
--------------
--------------



-------------
-------------
-------------
-------------

-------------
-------------
-------------
-------------

----------0--
-------------
----------0--
-------------

----2--3-----
-------------
----2--3-----
-------------

-3-----------
-------------
-3-----------
-------------

-------------
-1--0--1--3--
-------------
-1--0--1--3--

-------------
-------------
-------------
-------------



-------------
-------------
-------------
-------------

-------------
-------------
-------------
-------------

----------0--
-------------
----------0--
-------------

----2--3-----
-------------
----2--3-----
-------------

-3-----------
-------------
-3-----------
-------------

-------------
-1--0--1--3--
-------------
-1--0--1--3--

-------------
-------------
-------------
-------------



-------------
-------------
-----------------
---------------

-------------
-------------
-----------------
---------------

-------------
-------------
-----------------
---------------

-------------
-------------
-3-3-3-3-3-3-3-3-
-3-3-3-3-------

-0--0--0--0--
-0--0--0--0--
-----------------
---------3-----

-------------
-------------
-----------------
------------3--

-------------
-------------
-----------------
---------------



-------------
-------------
-----------------
---------------

-------------
-------------
-----------------
---------------

-------------
-------------
-----------------
---------------

-------------
-------------
-3-3-3-3-3-3-3-3-
-3-3-3-3-------

-0--0--0--0--
-0--0--0--0--
-----------------
---------3-----

-------------
-------------
-----------------
------------3--

-------------
-------------
-----------------
---------------



-------------
-------------
-----------------
---------------

-------------
-------------
-----------------
---------------

-------------
-------------
-----------------
---------------

-------------
-------------
-3-3-3-3-3-3-3-3-
-3-3-3-3-------

-0--0--0--0--
-0--0--0--0--
-----------------
---------3-----

-------------
-------------
-----------------
------------3--

-------------
-------------
-----------------
---------------



-------------
-------------
-----------------
-----------------

-------------
-------------
-----------------
-----------------

-------------
-------------
-----------------
-----------------

-------------
-------------
-----------------
-----------------

-0--0--0--0--
-0--0--0--0--
-----------------
-----------------

-------------
-------------
-3-3-3-3-3-3-3-3-
-3-3-3-3-3-3-3-3-

-------------
-------------
-----------------
-----------------



--------------
--------------
--------------
--------------

--------------
--------------
--------------
--------------

--------------
--------------
--------------
--------------

--------------
--------------
--------------
--------------

-3--2--0------
------------0-
-3--2--0------
------------0-

----------3-0-
-1--0--1--3---
----------3-0-
-1--0--1--3---

--------------
--------------
--------------
--------------



--------------
--------------
--------------
--------------

--------------
--------------
--------------
--------------

--------------
--------------
--------------
--------------

--------------
--------------
--------------
--------------

-3--2--0------
------------0-
-3--2--0------
------------0-

----------3-0-
-1--0--1--3---
----------3-0-
-1--0--1--3---

--------------
--------------
--------------
--------------



--------------
--------------
--------------
--------------

--------------
--------------
--------------
--------------

--------------
--------------
--------------
--------------

--------------
--------------
--------------
--------------

-3--2--0------
------------0-
-3--2--0------
------------0-

----------3-0-
-1--0--1--3---
----------3-0-
-1--0--1--3---

--------------
--------------
--------------
--------------



--------------
--------------
--------------
--------------

--------------
--------------
--------------
--------------

--------------
--------------
--------------
--------------

--------------
--------------
--------------
--------------

-3--2--0------
------------0-
-3--2--0------
------------0-

----------3-0-
-1--0--1--3---
----------3-0-
-1--0--1--3---

--------------
--------------
--------------
--------------



-------------
-------------
-------------
-------------

-------------
-------------
-------------
-------------

----------0--
-------------
----------0--
-------------

----2--3-----
-------------
----2--3-----
-------------

-3-----------
-------------
-3-----------
-------------

-------------
-1--0--1--3--
-------------
-1--0--1--3--

-------------
-------------
-------------
-------------



-------------
-------------
-------------
-------------

-------------
-------------
-------------
-------------

----------0--
-------------
----------0--
-------------

----2--3-----
-------------
----2--3-----
-------------

-3-----------
-------------
-3-----------
-------------

-------------
-1--0--1--3--
-------------
-1--0--1--3--

-------------
-------------
-------------
-------------



-------------
-------------
-------------
-------------

-------------
-------------
-------------
-------------

----------0--
-------------
----------0--
-------------

----2--3-----
-------------
----2--3-----
-------------

-3-----------
-------------
-3-----------
-------------

-------------
-1--0--1--3--
-------------
-1--0--1--3--

-------------
-------------
-------------
-------------



-------------
-------------
-------------
-------------

-------------
-------------
-------------
-------------

----------0--
-------------
----------0--
-------------

----2--3-----
-------------
----2--3-----
-------------

-3-----------
-------------
-3-----------
-------------

-------------
-1--0--1--3--
-------------
-1--0--1--3--

-------------
-------------
-------------
-------------



----------
------------
------------
--------*

----------
------------
------------
--------*

----------
------------
------------
--------*

----------
------------
------------
--------*

-3--------
-(3)--------
-(3)--------
-(3)----*

----------
------------
------------
--------*

----------
------------
------------
--------*





--------------------------------------------------------------------------------

CHICK MAGNET (RHYTHM GUITAR)
As recorded by MxPx

This is the rhythm part to the song.




Gtr I (E A D G B E) - 'Guitar'


  Q=168
1/4 4/4
  Gtr I

---
---------
---------
-----

---
---------
---------
-----

---
---------
---------
-----

---
---------
---------
-----

---
---------
---------
-----

---
---------
---------
-----



--------------------
----------
------------
--------

--------------------
----------
------------
--------

--------------------
-0--------
-(0)--------
-(0)----

---5-5--5-5--5-5--5-
-2--------
-(2)--------
-(2)----

---3-3--3-3--3-3--3-
-3--------
-(3)--------
-(3)----

--------------------
----------
------------
--------



------------
----------
------------
--------

------------
----------
------------
--------

-(0)--------
----------
------------
--------

-(2)--------
----------
------------
--------

-(3)--------
-3--------
-(3)--------
-(3)----

------------
----------
------------
--------



------------
---------
---------
-----

------------
---------
---------
-----

------------
---------
---------
-----

------------
---------
---------
-----

-(3)--------
---------
---------
-----

------------
---------
---------
-----



---------
---------
---------
-----

---------
---------
---------
-----

---------
---------
---------
-----

---------
---------
---------
-----

---------
---------
---------
-----

---------
---------
---------
-----



---------
---------
---------
-----

---------
---------
---------
-----

---------
---------
---------
-----

---------
---------
---------
-----

---------
---------
---------
-----

---------
---------
---------
-----



---------
---------
---------
-----

---------
---------
---------
-----

---------
---------
---------
-----

---------
---------
---------
-----

---------
---------
---------
-----

---------
---------
---------
-----



----------
-----------------
-----------------
-----------------

----------
-----------------
-----------------
-----------------

----------
-----------------
-------------0-0-
-----------------

-3--------
-5-5-5-5-5-5-5-5-
-3-3-2-2-3-3-0-0-
-5-5-5-5-5-5-5-5-

-3--------
-3-3-3-3-3-3-3-3-
-3-3-2-2-3-3-----
-3-3-3-3-3-3-3-3-

-1--------
-----------------
-----------------
-----------------



-----------------
-----------------
-----------------
-----------------

-----------------
-----------------
-----------------
-----------------

-------------0-0-
-----------------
-------------0-0-
-----------------

-3-3-2-2-3-3-0-0-
-5-5-5-5-5-5-5-5-
-3-3-2-2-3-3-0-0-
-5-5-5-5-5-5-5-5-

-3-3-2-2-3-3-----
-3-3-3-3-3-3-3-3-
-3-3-2-2-3-3-----
-3-3-3-3-3-3-3-3-

-----------------
-----------------
-----------------
-----------------



-----------------
-------------
-------------
-------------

-----------------
-------------
-------------
-------------

-------------0-0-
-------------
-------------
-------------

-3-3-2-2-3-3-0-0-
-2--2--2--2--
-2--2--2--2--
-3--3--3--3--

-3-3-2-2-3-3-----
-0--0--0--0--
-0--0--0--0--
-3--3--3--3--

-----------------
-------------
-------------
-------------



-------------
-------------
-------------
-------------

-------------
-------------
-------------
-------------

-------------
-------------
-------------
-------------

-3--3--5-----
-2--2--2--2--
-2--2--2--2--
-3--3--3--3--

-3--3--3--5--
-0--0--0--0--
-0--0--0--0--
-3--3--3--3--

----------3--
-------------
-------------
-------------



-------------
-------------
-------------
-------------

-------------
-------------
-------------
-------------

-------------
-------------
-------------
-------------

-3--3--5-----
-2--2--2--2--
-2--2--2--2--
-3--3--3--3--

-3--3--3--5--
-0--0--0--0--
-0--0--0--0--
-3--3--3--3--

----------3--
-------------
-------------
-------------



-------------
-------------
-------------
-----------------

-------------
-------------
-------------
-----------------

-------------
-------------
-------------
-----------------

-3--3--5-----
-2--2--2--2--
-2--2--2--2--
-----------------

-3--3--3--5--
-0--0--0--0--
-0--0--0--0--
-5-5-5-5-5-5-5-5-

----------3--
-------------
-------------
-3-3-3-3-3-3-3-3-



-----------------------------
----------
--------

-----------------------------
----------
--------

-0-0--0-0-0--0-0-0--0-0-0--0-
-0--------
-(0)----

-0-0--0-0-0--0-0-0--0-0-0--0-
-2--------
-(2)----

-----------------------------
-3--------
-(3)----

-----------------------------
----------
--------



------------
------------
---------
-----

------------
------------
---------
-----

-(0)--------
-(0)--------
---------
-----

-(2)--------
-(2)--------
---------
-----

-(3)--------
-(3)--------
---------
-----

------------
------------
---------
-----



---------
---------
---------
-----

---------
---------
---------
-----

---------
---------
---------
-----

---------
---------
---------
-----

---------
---------
---------
-----

---------
---------
---------
-----



---------
---------
---------
-----

---------
---------
---------
-----

---------
---------
---------
-----

---------
---------
---------
-----

---------
---------
---------
-----

---------
---------
---------
-----



---------
---------
---------
-----

---------
---------
---------
-----

---------
---------
---------
-----

---------
---------
---------
-----

---------
---------
---------
-----

---------
---------
---------
-----



---------
---------
---------
-----

---------
---------
---------
-----

---------
---------
---------
-----

---------
---------
---------
-----

---------
---------
---------
-----

---------
---------
---------
-----



---------
----------
-----------------
-----------------

---------
----------
-----------------
-----------------

---------
----------
-----------------
-------------0-0-

---------
-3--------
-5-5-5-5-5-5-5-5-
-3-3-2-2-3-3-0-0-

---------
-3--------
-3-3-3-3-3-3-3-3-
-3-3-2-2-3-3-----

---------
-1--------
-----------------
-----------------



-----------------
-----------------
-----------------
-----------------

-----------------
-----------------
-----------------
-----------------

-----------------
-------------0-0-
-----------------
-------------0-0-

-5-5-5-5-5-5-5-5-
-3-3-2-2-3-3-0-0-
-5-5-5-5-5-5-5-5-
-3-3-2-2-3-3-0-0-

-3-3-3-3-3-3-3-3-
-3-3-2-2-3-3-----
-3-3-3-3-3-3-3-3-
-3-3-2-2-3-3-----

-----------------
-----------------
-----------------
-----------------



-----------------
-----------------
-------------
-------------

-----------------
-----------------
-------------
-------------

-----------------
-------------0-0-
-------------
-------------

-5-5-5-5-5-5-5-5-
-3-3-2-2-3-3-0-0-
-2--2--2--2--
-2--2--2--2--

-3-3-3-3-3-3-3-3-
-3-3-2-2-3-3-----
-0--0--0--0--
-0--0--0--0--

-----------------
-----------------
-------------
-------------



-------------
-------------
-------------
-------------

-------------
-------------
-------------
-------------

-------------
-------------
-------------
-------------

-3--3--3--3--
-3--3--5-----
-2--2--2--2--
-2--2--2--2--

-3--3--3--3--
-3--3--3--5--
-0--0--0--0--
-0--0--0--0--

-------------
----------3--
-------------
-------------



-------------
-------------
-------------
-------------

-------------
-------------
-------------
-------------

-------------
-------------
-------------
-------------

-3--3--3--3--
-3--3--5-----
-2--2--2--2--
-2--2--2--2--

-3--3--3--3--
-3--3--3--5--
-0--0--0--0--
-0--0--0--0--

-------------
----------3--
-------------
-------------



-------------
-------------
-------------
-------------

-------------
-------------
-------------
-------------

-------------
-------------
-------------
-------------

-3--3--3--3--
-3--3--5-----
-2--2--2--2--
-2--2--2--2--

-3--3--3--3--
-3--3--3--5--
-0--0--0--0--
-0--0--0--0--

-------------
----------3--
-------------
-------------



-----------------
-----------------------------
------

-----------------
-----------------------------
------

-----------------
-0-0--0-0-0--0-0-0--0-0-0--0-
-0----

-----------------
-0-0--0-0-0--0-0-0--0-0-0--0-
-2----

-5-5-5-5-5-5-5-5-
-----------------------------
-3----

-3-3-3-3-3-3-3-3-
-----------------------------
------



------------
------------
------------
-----

------------
------------
------------
-----

-(0)--------
-(0)--------
-(0)--------
-----

-(2)--------
-(2)--------
-(2)--------
-----

-(3)--------
-(3)--------
-(3)--------
-----

------------
------------
------------
-----



---------
---------
---------
------

---------
---------
---------
------

---------
---------
---------
-0----

---------
---------
---------
-2----

---------
---------
---------
-3----

---------
---------
---------
------



------------
------------
------------
-----

------------
------------
------------
-----

-(0)--------
-(0)--------
-(0)--------
-----

-(2)--------
-(2)--------
-(2)--------
-----

-(3)--------
-(3)--------
-(3)--------
-----

------------
------------
------------
-----



---------
---------
----------
-----------------

---------
---------
----------
-----------------

---------
---------
----------
-----------------

---------
---------
-3--------
-5-5-5-5-5-5-5-5-

---------
---------
-3--------
-3-3-3-3-3-3-3-3-

---------
---------
-1--------
-----------------



-----------------
-----------------
-----------------
-----------------

-----------------
-----------------
-----------------
-----------------

-------------0-0-
-----------------
-------------0-0-
-----------------

-3-3-2-2-3-3-0-0-
-5-5-5-5-5-5-5-5-
-3-3-2-2-3-3-0-0-
-5-5-5-5-5-5-5-5-

-3-3-2-2-3-3-----
-3-3-3-3-3-3-3-3-
-3-3-2-2-3-3-----
-3-3-3-3-3-3-3-3-

-----------------
-----------------
-----------------
-----------------



-----------------
-----------------
-----------------
-----------------

-----------------
-----------------
-----------------
-----------------

-------------0-0-
-----------------
-------------0-0-
-----------------

-3-3-2-2-3-3-0-0-
-5-5-5-5-5-5-5-5-
-3-3-2-2-3-3-0-0-
-5-5-5-5-5-5-5-5-

-3-3-2-2-3-3-----
-3-3-3-3-3-3-3-3-
-3-3-2-2-3-3-----
-3-3-3-3-3-3-3-3-

-----------------
-----------------
-----------------
-----------------



-----------------
-----------------
-----------------
-----------------

-----------------
-----------------
-----------------
-----------------

-------------0-0-
-----------------
-------------0-0-
-----------------

-3-3-2-2-3-3-0-0-
-5-5-5-5-5-5-5-5-
-3-3-2-2-3-3-0-0-
-5-5-5-5-5-5-5-5-

-3-3-2-2-3-3-----
-3-3-3-3-3-3-3-3-
-3-3-2-2-3-3-----
-3-3-3-3-3-3-3-3-

-----------------
-----------------
-----------------
-----------------



-----------------
-----------------
-----------------
------

-----------------
-----------------
-----------------
------

-------------0-0-
-----------------
-------------0-0-
------

-3-3-2-2-3-3-0-0-
-5-5-5-5-5-5-5-5-
-3-3-2-2-3-3-0-0-
-5----

-3-3-2-2-3-3-----
-3-3-3-3-3-3-3-3-
-3-3-2-2-3-3-----
-3----

-----------------
-----------------
-----------------
------



------------
------------
--------*

------------
------------
--------*

------------
------------
--------*

-(5)--------
-(5)--------
-(5)----*

-(3)--------
-(3)--------
-(3)----*

------------
------------
--------*





--------------------------------------------------------------------------------


Tablature Legend
----------------
h   - hammer-on
p   - pull-off
b   - bend
pb  - pre-bend
r   - bend release (if no number after the r, then release immediately)
/\  - slide into or out of (from/to "nowhere")
s   - legato slide
S   - shift slide
 - natural harmonic
[n]  - artificial harmonic
n(n) - tapped harmonic
~   - vibrato
tr  - trill
T   - tap
TP  - trem. picking
PM  - palm muting
\n/  - tremolo bar dip; n = amount to dip
\n  - tremolo bar down
n/  - tremolo bar up
/n\  - tremolo bar inverted dip
=   - hold bend; also acts as connecting device for hammers/pulls
<> - volume swell (louder/softer)
x   - on rhythm slash represents muted slash
o   - on rhythm slash represents single note slash

Misc Legend
-----------

  - bar

  - double bar

o - repeat start
o
 - repeat end
*
  - double bar (ending)
:  - bar (freetime)
$  - Segno
&  - Coda



_________________________________________________________________





 


/
How To Set Up Higher Praise As Your Home Page
Copyright 1999, Higher Praise HigherPraise,Inc. All rights reserved. Terms of Use

Enjoy A Life Changing Experience

 
 
 
HigherPraise, Higher Praise, HigherPraise, Higher Praise, HigherPraise

Members..Sign Up. LogIn

 
 

Higher Praise Other Sites
 
 

HigherPraise.org/
Praise And Worship
www.higherpraise.org

HigherPraise.net
Christian Resources
www.higherpraise.net

HigherPraiseTube.com
Videos And Audios
www.higherpraisetube.com.


ChristianLyrics.org

Lyrics And Chrords
www.christianlyrics.org

ChristianChordsLyrics

Lyrics And Chrords
www.christianchordslyrics.com

ChristianChordLyrics

Lyrics And Chrords
www.christianchordlyrics.com

WorshipLyrics.org
10.000 Illustrations
www.worshiplyrics.org

WorshipLyrics.net
10.000 Illustrations
www.worshiplyrics.net

PraiseLyrics.com
PowerPoint Lyrics

www.praiselyrics.com

PraiseLyrics.org
PowerPoint Lyrics

www.praiselyrics.org

1GodTube.com
Chistian Videos

www1godtube..com

OneGodTube.com
Chistian Videos

www.onegodtube..com

 

/
Copyright 1999 - 2019, Higher Praise™ HigherPraise™,Inc. All rights reserved. Terms of Use