I Am God Tabs by Kirk Franklin

Higher Praise - Guitar Chords, Lyrics  GuitarTabs -  Praise nad Worship Music And Christian Songs

Higher Praise - Guitar Tabs, Guitar Chords, Lyrics
   Lyrics, Chords And Tabs
   Popular Lyrics Chords Tab
   Power Point Lyrics
   Praise & Worship Music
   Christian Music Videos
   15900 Videos & Audios
   Midi Files
   Worship Questions
   Christmas Chords, Lyrics
   Lyrics, Chords Tabs Rated

Sermon Outlines And Audio Sermons
   9344 Sermon Outlines
   N.T. Sermon Outlines
   O.T. Sermon Outlines
   Special Guest Outlines
   10.000 Illustrations
   Sunday School Studies
   Bible College Studies
   Greatest Preachers
   Bible Research Tools
Audio Sermons
   2895 Audio Sermons
   85 Sermon Videos
   291 Special Guests Serm

   Complete Audio Bible
Higher Praise Sunday School Teaching
   Children's NT Studies
   Children's OT Studies

   98 Children's Midis
   Gospel For Kids Movie
   Children's JESUS Film
Higher Praise Christian Video Library ,Videos
   Christian Television
   TBN TV Live
   15,000 Videos - HP Tube
   712 Youth Music Vids
  Christian Video Library
   Praise Videos #1 & #2
   85 Sermon Videos
   Prophecy Film -Videos
   JESUS Film -Video
   Childrens JESUS Film
   Gospel For Kids Movie
   Passion Of The Christ
   Noah, Sodom, Sinai, Ark
   Tsunami Videos Photos
News And Information
   Testimonies
   Submit Lyrics, Tabs, Serm
   10.000 Illustrations
   Bible College Course
   Clipart & Web Graphics
   Greatest Preachers
   Complete Talking Bible
   Christian Chat Rooms
   Links Church Resource
   HP Statement Of Faith
Download Clipart
   Audio Sermons
   Clipart & Web Graphics
   Church Administration
   Bible Study Software
   Screen Savers Software
   Verse A Day Software
   Educational Games
   Trade Center Photos

   Soft. Search Engine
Higher Praise News
   Current News
    Archived News
   Submit News
   Newsletter   Higher Praise Interact Prayer
   Prayer For All Needs
   
Submit Lyrics, Sermons
   
Contact Higher Praise
   
Advertising 
   Privacy Policy
//
He Died For You,  Click For Answer! This Is Who Jesus Is Video

'
 
0-9 A B C D E F G H I J K L M N O P Q R S T U V W X Y Z
.

//
Click For Printable...Version Of This File
 

I Am God


by Kirk Franklin

Share |



Hey this is Mike this is my very 1st tab i hope you like it.
I love this song! Off kirks new cd call"The Fight Of My Life" Track 9

Standard Tuning

Intro


e
-----------------
-------------------
----------------------

B
-----------------
-------------------
----------------------

G
-----------------
-------------------
----------------------

D
-----------------
-------------------
----------------------

A
-0h1-0h1-0h1-0h1-
--1-1-1--3---------
-1h3-1h3-1h3-1h3(x2---

E
-----------------
-1-1-1----1--------
----------------------



V1:
Think im gonna walk away, your'e messing up my life today
and this time i refuse to pray but, still you keep calling me


e
-----------------
-------------------
----------------------

B
-----------------
-------------------
----------------------

G
-----------------
-------------------
----------------------

D
-----------------
-------------------
----------------------

A
-0h1-0h1-0h1-----
--1-1-1------------
-1h3-1h3-1h3-(x2)-----

E
-----------------
-1-1-1-1------------
---------------------


V1:
I dont want to see your face,the thing i loved you erase,
nothing but an empty space,now i don't know how to be


e
-----------------
-------------------
----------------------

B
-----------------
-------------------
----------------------

G
-----------------
-------------------
----------------------

D
-----------------
-------------------
----------------------

A
-0h1-0h1-0h1-0h1-
--1-1-1--3---------
-1h3-1h3-1h3-1h3(x2---

E
-----------------
-1-1-1----1--------
----------------------


V2:
i know it wasn't right for me,that what you like aint what you need,
i feel like i'm in surgery,still you cut deeper


e
-----------------
-------------------
-------------------

B
-----------------
-------------------
-------------------

G
-----------------
-------------------
-------------------

D
-----------------
-------------------
-------------------

A
-0h1-0h1-0h1-----
--1-1-1------------
-1h3-1h3-1h3-(x2)--

E
-----------------
-1-1-1-1-----------
-------------------


V2:
Bb                 F
my secrets within,my blanket of sin,
Bb                   F
lord how much longer till you through with me
G
PLEASE TAKE WHAT YOU NEED(stop playing)  Can I Get Up Now?

Chorus
   Bb         F         C
Be Still, and know i am god (x2)

V3:
lord,your ways are not my ways,everything you don't explain
and some things i don't wanna change,so you keep breaking me


e
-----------------
-------------------
-------------------

B
-----------------
-------------------
-------------------

G
-----------------
-------------------
-------------------

D
-----------------
-------------------
-------------------

A
-0h1-0h1-0h1-----
--1-1-1------------
-1h3-1h3-1h3-(x2)--

E
-----------------
-1-1-1-1-----------
-------------------


V3:

Bb Bb Bb it's like i'm fighting for my life

F F F you hit me with another right

C C C i feel like jacob in the night

C C C won't stop till you bless me

V3:
Bb                   F
my flesh and my will,it's yours now to kill
Bb                F
present myself to you
G
but living sacrifices move(stop playing) CAN I GET UP NOW!!!!!!!!

Chorus(x4)

Bridge
Bb                                (C)listen to the song you'll understand
if i could i'd fly away from here
Bb                                  (C)
but even when i'm far you are still near
G       F         G           F
i gotta get out(there's no way out)
G       F         G           F
but what if i run(there's no where to run)
C
let go(don't go)
C
No(no) No(no)


play chorus chords Bb,F,C,C (piano) (x5) on fifth time build straight to the 
that time kirk says
Bb,F
   you win
C                                C
 i've been tryin to do it on my own
Bb                       F
right now GOD i surrender
C                                C
 you know whats best(say it like you mean it)
  Bb
it's not easy waiting on you
  F
it's not easy to believe that you got this together
C                          C                       Bb
  but without faith it's impossible to please you(we love you)
F
so imma stand right here
C(start to build up)CCCCCCCCCCCCCC
you got this,you got me you got me


chorus x4
 


/
How To Set Up Higher Praise As Your Home Page
Copyright 1999, Higher Praise HigherPraise,Inc. All rights reserved. Terms of Use

Enjoy A Life Changing Experience

 
 
 
HigherPraise, Higher Praise, HigherPraise, Higher Praise, HigherPraise

Members..Sign Up. LogIn

 
 

Higher Praise Other Sites
 
 

HigherPraise.org/
Praise And Worship
www.higherpraise.org

HigherPraise.net
Christian Resources
www.higherpraise.net

HigherPraiseTube.com
Videos And Audios
www.higherpraisetube.com.


ChristianLyrics.org

Lyrics And Chrords
www.christianlyrics.org

ChristianChordsLyrics

Lyrics And Chrords
www.christianchordslyrics.com

ChristianChordLyrics

Lyrics And Chrords
www.christianchordlyrics.com

WorshipLyrics.org
10.000 Illustrations
www.worshiplyrics.org

WorshipLyrics.net
10.000 Illustrations
www.worshiplyrics.net

PraiseLyrics.com
PowerPoint Lyrics

www.praiselyrics.com

PraiseLyrics.org
PowerPoint Lyrics

www.praiselyrics.org

1GodTube.com
Chistian Videos

www1godtube..com

OneGodTube.com
Chistian Videos

www.onegodtube..com

 

/
Copyright 1999 - 2019, Higher Praise™ HigherPraise™,Inc. All rights reserved. Terms of Use