Cigarettes Tabs by Kings X

Higher Praise - Guitar Chords, Lyrics  GuitarTabs -  Praise nad Worship Music And Christian Songs

Higher Praise - Guitar Tabs, Guitar Chords, Lyrics
   Lyrics, Chords And Tabs
   Popular Lyrics Chords Tab
   Power Point Lyrics
   Praise & Worship Music
   Christian Music Videos
   15900 Videos & Audios
   Midi Files
   Worship Questions
   Christmas Chords, Lyrics
   Lyrics, Chords Tabs Rated

Sermon Outlines And Audio Sermons
   9344 Sermon Outlines
   N.T. Sermon Outlines
   O.T. Sermon Outlines
   Special Guest Outlines
   10.000 Illustrations
   Sunday School Studies
   Bible College Studies
   Greatest Preachers
   Bible Research Tools
Audio Sermons
   2895 Audio Sermons
   85 Sermon Videos
   291 Special Guests Serm

   Complete Audio Bible
Higher Praise Sunday School Teaching
   Children's NT Studies
   Children's OT Studies

   98 Children's Midis
   Gospel For Kids Movie
   Children's JESUS Film
Higher Praise Christian Video Library ,Videos
   Christian Television
   TBN TV Live
   15,000 Videos - HP Tube
   712 Youth Music Vids
  Christian Video Library
   Praise Videos #1 & #2
   85 Sermon Videos
   Prophecy Film -Videos
   JESUS Film -Video
   Childrens JESUS Film
   Gospel For Kids Movie
   Passion Of The Christ
   Noah, Sodom, Sinai, Ark
   Tsunami Videos Photos
News And Information
   Testimonies
   Submit Lyrics, Tabs, Serm
   10.000 Illustrations
   Bible College Course
   Clipart & Web Graphics
   Greatest Preachers
   Complete Talking Bible
   Christian Chat Rooms
   Links Church Resource
   HP Statement Of Faith
Download Clipart
   Audio Sermons
   Clipart & Web Graphics
   Church Administration
   Bible Study Software
   Screen Savers Software
   Verse A Day Software
   Educational Games
   Trade Center Photos

   Soft. Search Engine
Higher Praise News
   Current News
    Archived News
   Submit News
   Newsletter   Higher Praise Interact Prayer
   Prayer For All Needs
   
Submit Lyrics, Sermons
   
Contact Higher Praise
   
Advertising 
   Privacy Policy
//
He Died For You,  Click For Answer! This Is Who Jesus Is Video

'
 
0-9 A B C D E F G H I J K L M N O P Q R S T U V W X Y Z
.

//
Click For Printable...Version Of This File
 

Cigarettes


by Kings X

Share |



#----------------------------------PLEASE NOTE---------------------------------#
#This file is the author's own work and represents their interpretation of the #
#song. You may only use this file for private study, scholarship, or research. #
#------------------------------------------------------------------------------#

Cigarettes by King's X from the Dogman CD - 1993/4
Transcribed by Daniel S. Fisher (WetStone) in October 1995.

This song is great and it reminded me of "Pleiades" so why did I waste a
week of my time in Open G tuning when the song is actually in...

DROPPED D TUNING !!!???

I used Chordmaster Pro Plus to transcribe this file into playable *.AXE
format, and then printed it to a text file for this tab.

The equal signs after the numbers are indications of the length of each
note.  I added notations and lyrics to the printed tab file.

DROPPED D TUNING
Approximately BPM = 141
4/4 Time

INTRO (play measures 1 through 8 before first verse, but play only measures
       1 through 4 before the second verse, skip INTRO for the third verse)
1                        2                        3

------------------------
------------------------
-------------------------

------------------------
------------------------
-------------------------

--------4--5===--5======
--5=========--5=========
======--4--5===--5====---

-----2--2--3===--3======
--3=========--3=========
======--3======--3====---

--0===============------
------------------------
-------------------------

--------------------5===
========================
--3===============--5=---

         ^^^^^^^^^^^^^                                     ^^^^
(If you use your index and little fingers to slide up from 2&4 to 3&5 in
 measure 1, use your ring finger to play the "D" string, then what follows
 is self-evident. In measure 3, hammer on with your little finger while
 barring both D strings at the 3rd fret).

4                        5                        6

------------------------
------------------------
-------------------------

------------------------
------------------------
-------------------------

--5=========--4======---
--------4--5===--5======
--5=========--5======----

--0=========--0======---
--------2--3===--3======
--3=========--3======----

-----------------------0
------------------------
-------------------------

==================--5---
--0===============--5===
==================--5--4-



7                        8                        9

------------------------
------------------------
-------------------------

------------------------
------------------------
-------------------------

--------4--5===--5======
--5=========--5===--4===
--------4--5===--5====---

--------3======--3======
--2=========--2===--2===
-----2--2--3===--3====---

------------------------
------------------------
--0===============-------

--3===============--0--2
========================
--------------------5=---

                                            VERSES:           Have  you
                                                              Is    it
                                                              Did   you
10                       11                       12

------------------------
------------------------
-------------------------

------------------------
------------------------
-------------------------

--5=========--5=========
======--4--5===--5======
--5=========--4======----

--3=========--3=========
======--3======--3======
--0=========--0======----

------------------------
------------------------
-----------------------0-

========================
--3===============--5===
==================--5----

      gotten        any         cigarettes?
      June      or       late    September?
      ever    get    those      cigarettes?

13                       14                       15

------------------------
------------------------
-------------------------

------------------------
------------------------
-------------------------

--------4--5===--5======
--5=========--5======---
--------4--5===--5====---

--------2--3===--3======
--3=========--3======---
--------3======--3====---

------------------------
------------------------
-------------------------

--0===============--5===
==================--5--4
--3===============--0--2-

    And    have    you   got    anything    for    me?
                 Is             it           1 9 9 3 ?
    And    did     you   get    anything    for    me?

16                       17                       18

------------------------
------------------------
-------------------------

------------------------
------------------------
-------------------------

--5=========--5===--4===
--------4--5===--5======
--5=========--5=======---

--2=========--2===--2===
-----2--2--3===--3======
--3=========--3=======---

------------------------
--0===============------
-------------------------

========================
--------------------5===
======================---

                            I     no       longer     know    just what I'm
                                       Could      you     help   me      to
                                       Will       you     help   me      to

19                       20                       21

------------------------
------------------------
-------------------------

------------------------
------------------------
-------------------------

======--4--5===--5======
--5=========--4======---
--------4--5===--5====---

======--3======--3======
--0=========--0======---
--------2--3===--3====---

------------------------
-----------------------0
-------------------------

--3===============--5===
==================--5---
--0===============--5=---

    saying                                                    Is   this
    remember?                                                 Is   this
    remember?                                                 When    I

22                       23                       24

------------------------
------------------------
-------------------------

------------------------
------------------------
-------------------------

--5=========--5======---
--------4--5===--5======
--5=========--4===--2=---

--3=========--3======---
--------3======--3======
--2=========--2===--2=---

------------------------
------------------------
--------------------0=---

==================--5--4
--3=========--------5===
============-------------

   how it's supposed to be?                 CHORUS:                    Some
   how I'm  supposed to be?
   fall  into   the    sea?

25                       26                       27

------------------------
------------------------
-------------------------

------------------------
--3===============--0===
============--3=======---

--2===------------------
--2===============--0===
======--0=============---

--2===--3===--3===--5===
--0===============--2===
======================---

--0===--3===--3===--5===
--0===============--2===
======================---

--------3===--3===--5===
--0===============--2===
======================---

times    I     think the    pain

28                       29                       30

------------------------
------------------------
-------------------------

--------------3===------
------------------------
-------------------------

--------0=========------
--------------0===------
--2=========-------------

------------------------
--------3===--------3===
--2=========-------------

--3===============--2===
--1=====================
--0=========--3=======---

------------------------
------------------------
--------------3=======---

   blows             my     mind

31                       32                       33

------------------------
------------------------
-------------------------

--3===============--0===
============--3=========
--------------3===-------

--2===============--0===
======--0===============
--------0=========-------

--0===============--2===
========================
-------------------------

--0===============--2===
========================
--3===============--2=---

--0===============--2===
========================
-------------------------

   pain                                              blows             my

34                       35                       36

------------------------
------------------------
-------------------------

------------------------
------------------------
-------------------------

--------------0===------
--2=========------------
--------0===--0===-------

--------3===--------3===
--2=========------------
--------0===--0===-------

--1=====================
--0=========--3=========
======-------------------

------------------------
--------------3=========
======--5===--5=======---

   mind

(repeat INTRO only once, then repeat second VERSE and CHORUS)
(after second CHORUS, play the following BRIDGE and SOLO)
(after third verse, play CHORUS twice, and then play BRIDGE and fade...)
BRIDGE:
37

-------------------------

--------1=========--3=---

-------------------------

--------3=========--5=---

--0=====================

------------------------


38                       39                       40

------------------------
------------------------
-------------------------

--5=========--1=========
------------------------
-------------------------

------------------------
--------4--5===--5======
--5=========--4======----

--7=========--3=========
--------3======--3======
--0=========--0======----

========================
------------------------
-----------------------0-

------------------------
--3===============--5===
==================--5----



41                       42                       43

------------------------
------------------------
-------------------------

--------1=========--3===
--5=========--8=========
-------------------------

------------------------
------------------------
--------4--5===--5====---

--------3=========--5===
--7=========-10=========
--------3======--3====---

------------------------
------------------------
-------------------------

--0=====================
========================
--3===============--5=---



44                       45                       46

------------------------
------------------------
-------------------------

------------------------
--------1=========--3===
--5=========--1=======---

--5=========--4======---
------------------------
-------------------------

--0=========--0======---
--------3=========--5===
--7=========--3=======---

-----------------------0
------------------------
-------------------------

==================--5---
--0=====================
======================---



47                       48                       49

------------------------
------------------------
-------------------------

------------------------
------------------------
--------1=========--3=---

--------4--5===--5======
--5=========--4======---
-------------------------

--------3======--3======
--0=========--0======---
--------3=========--5=---

------------------------
-----------------------0
-------------------------

--3===============--5===
==================--5---
--0===================---



50                       51                       52

------------------------
------------------------
-------------------------

--5=========--8=========
------------------------
-------------------------

------------------------
--------4--5===--5======
--5=========--4=======---

--7=========-10=========
--------3======--3======
--0=========--0=======---

------------------------
------------------------
-------------------------

========================
--3===============--5===
======================---


RHYTHM FOR SOLO:
53                       54                       55

------------------------
------------------------
-------------------------

------------------------
------------------------
-------------------------

------------------------
------------------------
-------------------------

------------------------
--------------5--5--5--5
--5--5--------------3=---

--0--0--0--0--0--0--2--2
--2--2--3--3--3--3--3--3
--3--3--2===--1=======---

--0--0--0--0--0--0--2--2
--2--2--3--3------------
-------------------------



56                       57                       58

------------------------
------------------------
-------------------------

------------------------
------------------------
-------------------------

--0===--------2=========
--------------------0===
--0=========-------------

--------3===--2=========
--------------------0===
--0=========-------------

--------------0=========
--3===============------
--------------0--0--0--0-

------------------------
--3===============--5===
--5=========--0--0--0--0-



59                       60                       61

------------------------
------------------------
-------------------------

------------------------
------------------------
-------------------------

------------------------
------------------------
--------------0===-------

------------------------
--5--5--5--5--5--5------
--------3===--------3=---

--0--0--2--2--2--2--3--3
--3--3--3--3--3--3--2===
--1=========-------------

--0--0--2--2--2--2--3--3
------------------------
-------------------------



62                       63

------------------------
------------------------

------------------------
------------------------

--2=========------------
--------0===--0=========

--2=========------------
--------0===--0=========

--0=========--3=========
======------------------

--------------3=========
======--5===--5=========


(return to third VERSE and CHORUS twice, then fade on BRIDGE to nowhere).


or

 


/
How To Set Up Higher Praise As Your Home Page
Copyright 1999, Higher Praise HigherPraise,Inc. All rights reserved. Terms of Use

Enjoy A Life Changing Experience

 
 
 
HigherPraise, Higher Praise, HigherPraise, Higher Praise, HigherPraise

Members..Sign Up. LogIn

 
 

Higher Praise Other Sites
 
 

HigherPraise.org/
Praise And Worship
www.higherpraise.org

HigherPraise.net
Christian Resources
www.higherpraise.net

HigherPraiseTube.com
Videos And Audios
www.higherpraisetube.com.


ChristianLyrics.org

Lyrics And Chrords
www.christianlyrics.org

ChristianChordsLyrics

Lyrics And Chrords
www.christianchordslyrics.com

ChristianChordLyrics

Lyrics And Chrords
www.christianchordlyrics.com

WorshipLyrics.org
10.000 Illustrations
www.worshiplyrics.org

WorshipLyrics.net
10.000 Illustrations
www.worshiplyrics.net

PraiseLyrics.com
PowerPoint Lyrics

www.praiselyrics.com

PraiseLyrics.org
PowerPoint Lyrics

www.praiselyrics.org

1GodTube.com
Chistian Videos

www1godtube..com

OneGodTube.com
Chistian Videos

www.onegodtube..com

 

/
Copyright 1999 - 2019, Higher Praise™ HigherPraise™,Inc. All rights reserved. Terms of Use