Video Girl Tabs by Jonas Brothers

Higher Praise - Guitar Chords, Lyrics  GuitarTabs -  Praise nad Worship Music And Christian Songs

Higher Praise - Guitar Tabs, Guitar Chords, Lyrics
   Lyrics, Chords And Tabs
   Popular Lyrics Chords Tab
   Power Point Lyrics
   Praise & Worship Music
   Christian Music Videos
   15900 Videos & Audios
   Midi Files
   Worship Questions
   Christmas Chords, Lyrics
   Lyrics, Chords Tabs Rated

Sermon Outlines And Audio Sermons
   9344 Sermon Outlines
   N.T. Sermon Outlines
   O.T. Sermon Outlines
   Special Guest Outlines
   10.000 Illustrations
   Sunday School Studies
   Bible College Studies
   Greatest Preachers
   Bible Research Tools
Audio Sermons
   2895 Audio Sermons
   85 Sermon Videos
   291 Special Guests Serm

   Complete Audio Bible
Higher Praise Sunday School Teaching
   Children's NT Studies
   Children's OT Studies

   98 Children's Midis
   Gospel For Kids Movie
   Children's JESUS Film
Higher Praise Christian Video Library ,Videos
   Christian Television
   TBN TV Live
   15,000 Videos - HP Tube
   712 Youth Music Vids
  Christian Video Library
   Praise Videos #1 & #2
   85 Sermon Videos
   Prophecy Film -Videos
   JESUS Film -Video
   Childrens JESUS Film
   Gospel For Kids Movie
   Passion Of The Christ
   Noah, Sodom, Sinai, Ark
   Tsunami Videos Photos
News And Information
   Testimonies
   Submit Lyrics, Tabs, Serm
   10.000 Illustrations
   Bible College Course
   Clipart & Web Graphics
   Greatest Preachers
   Complete Talking Bible
   Christian Chat Rooms
   Links Church Resource
   HP Statement Of Faith
Download Clipart
   Audio Sermons
   Clipart & Web Graphics
   Church Administration
   Bible Study Software
   Screen Savers Software
   Verse A Day Software
   Educational Games
   Trade Center Photos

   Soft. Search Engine
Higher Praise News
   Current News
    Archived News
   Submit News
   Newsletter   Higher Praise Interact Prayer
   Prayer For All Needs
   
Submit Lyrics, Sermons
   
Contact Higher Praise
   
Advertising 
   Privacy Policy
//
He Died For You,  Click For Answer! This Is Who Jesus Is Video

'
 
0-9 A B C D E F G H I J K L M N O P Q R S T U V W X Y Z
.

//
Click For Printable...Version Of This File
 

Video Girl


by Jonas Brothers

Share |



This is my first tab! I don't think its 100% right (the solos aren't included) but there 
another tab for this song yet, and it sounds alright to me. Please listen to the for 
patterns. Enjoy and please rate!

Updated (10/20/2008):

Intro
e
-----------------------------------------------------------

B
-----------------------------------------------------------

G
--9--9--9---999--------------------------------------------

D
--9--9--9---999--------------------------------------------
x3
A
--7--7--7---777--------------------------------------------

E
-----------------------------------------------------------


Verse #1
e
-----------------------------------------------------------

B
-----------------------------------------------------------

G
--9--7--5--------------------------------------------------

D
--9--7--5--9-----------------------------------------------

A
--7--5--3--9-----------------------------------------------

E
-----------7-----------------------------------------------


e
-----------------------------------------------------------

B
-----------------------------------------------------------

G
---9-------7------5----------------------------------------

D
---9-x4----7-x4---5-x4----9--------------------------------

A
--7-------5------3--------9-x4-----------------------------

E
-------------------------7---------------------------------


e
-----------------------------------------------------------

B
-----------------------------------------------------------

G
--5------4------9------7------5--------5~------------------

D
--5-x2---4-x2---9-x2---7-x2---5-x4-----5~------------------

A
-3------2------7------5------3---------3~------------------

E
-----------------------------------------------------------


Chorus
e
-------------------------------------------

B
-------------------------------------------

G
--9-9-9--7-7--7777-----------4-4--4444-----

D
--9-9-9--7-7--7777---7-7-7---4-4--4444-----
x4
A
--7-7-7--5-5--5555---7-7-7---2-2--2222-----

E
---------------------5-5-5-----------------


(Play Intro before verse)

Verse #2
e
-----------------------------------------------------------

B
-----------------------------------------------------------

G
---9-------7------5----------------------------------------

D
---9-x4----7-x4---5-x4----9--------------------------------
x2
A
--7-------5------3--------9-x4-----------------------------

E
-------------------------7---------------------------------


e
-----------------------------------------------------------

B
-----------------------------------------------------------

G
--5------4------9------7------5--------5~------------------

D
--5-x2---4-x2---9-x2---7-x2---5-x4-----5~------------------

A
-3------2------7------5------3---------3~------------------

E
-----------------------------------------------------------



Bridge
e
--------------------------------------------------

B
--------------------------------------------------

G
--------------------------------------------------

D
--9-----7-----14-----12---------------------------
x2
A
--9-x2--7-x2--14-x2--12-x2------------------------

E
-7-----5-----12-----10----------------------------


Please Comment and Rate! Thanks for reading!
 


/
How To Set Up Higher Praise As Your Home Page
Copyright 1999, Higher Praise HigherPraise,Inc. All rights reserved. Terms of Use

Enjoy A Life Changing Experience

 
 
 
HigherPraise, Higher Praise, HigherPraise, Higher Praise, HigherPraise

Members..Sign Up. LogIn

 
 

Higher Praise Other Sites
 
 

HigherPraise.org/
Praise And Worship
www.higherpraise.org

HigherPraise.net
Christian Resources
www.higherpraise.net

HigherPraiseTube.com
Videos And Audios
www.higherpraisetube.com.


ChristianLyrics.org

Lyrics And Chrords
www.christianlyrics.org

ChristianChordsLyrics

Lyrics And Chrords
www.christianchordslyrics.com

ChristianChordLyrics

Lyrics And Chrords
www.christianchordlyrics.com

WorshipLyrics.org
10.000 Illustrations
www.worshiplyrics.org

WorshipLyrics.net
10.000 Illustrations
www.worshiplyrics.net

PraiseLyrics.com
PowerPoint Lyrics

www.praiselyrics.com

PraiseLyrics.org
PowerPoint Lyrics

www.praiselyrics.org

1GodTube.com
Chistian Videos

www1godtube..com

OneGodTube.com
Chistian Videos

www.onegodtube..com

 

/
Copyright 1999 - 2019, Higher Praise™ HigherPraise™,Inc. All rights reserved. Terms of Use