Angels On Toop Hats Cups Full Of Blood Tabs by House Of Heroes

Higher Praise - Guitar Chords, Lyrics  GuitarTabs -  Praise nad Worship Music And Christian Songs

Higher Praise - Guitar Tabs, Guitar Chords, Lyrics
   Lyrics, Chords And Tabs
   Popular Lyrics Chords Tab
   Power Point Lyrics
   Praise & Worship Music
   Christian Music Videos
   15900 Videos & Audios
   Midi Files
   Worship Questions
   Christmas Chords, Lyrics
   Lyrics, Chords Tabs Rated

Sermon Outlines And Audio Sermons
   9344 Sermon Outlines
   N.T. Sermon Outlines
   O.T. Sermon Outlines
   Special Guest Outlines
   10.000 Illustrations
   Sunday School Studies
   Bible College Studies
   Greatest Preachers
   Bible Research Tools
Audio Sermons
   2895 Audio Sermons
   85 Sermon Videos
   291 Special Guests Serm

   Complete Audio Bible
Higher Praise Sunday School Teaching
   Children's NT Studies
   Children's OT Studies

   98 Children's Midis
   Gospel For Kids Movie
   Children's JESUS Film
Higher Praise Christian Video Library ,Videos
   Christian Television
   TBN TV Live
   15,000 Videos - HP Tube
   712 Youth Music Vids
  Christian Video Library
   Praise Videos #1 & #2
   85 Sermon Videos
   Prophecy Film -Videos
   JESUS Film -Video
   Childrens JESUS Film
   Gospel For Kids Movie
   Passion Of The Christ
   Noah, Sodom, Sinai, Ark
   Tsunami Videos Photos
News And Information
   Testimonies
   Submit Lyrics, Tabs, Serm
   10.000 Illustrations
   Bible College Course
   Clipart & Web Graphics
   Greatest Preachers
   Complete Talking Bible
   Christian Chat Rooms
   Links Church Resource
   HP Statement Of Faith
Download Clipart
   Audio Sermons
   Clipart & Web Graphics
   Church Administration
   Bible Study Software
   Screen Savers Software
   Verse A Day Software
   Educational Games
   Trade Center Photos

   Soft. Search Engine
Higher Praise News
   Current News
    Archived News
   Submit News
   Newsletter   Higher Praise Interact Prayer
   Prayer For All Needs
   
Submit Lyrics, Sermons
   
Contact Higher Praise
   
Advertising 
   Privacy Policy
//
He Died For You,  Click For Answer! This Is Who Jesus Is Video

'
 
0-9 A B C D E F G H I J K L M N O P Q R S T U V W X Y Z
.

//
Click For Printable...Version Of This File
 

Angels On Toop Hats Cups Full Of Blood


by House Of Heroes

Share |



artist:house of heroes
song: angels in tops hats, cups full of blood
album: house of heroes
gotee records

tr~=trill
b=bend
/=slide
~=hold
..=palm mute

Ok so this song has so many different parts to it,i dont even know what to call all of 
im gonna just put them down as theyre played,listen to the song for timeing :)


After this part the rest of the song starts,though the intro continues
                                               

e
--------------------------------------
      

B
-14/15 ----15----14/15-----15---------
      

G
--------13--------------13------------
(alot)

D
--------------------------------------
      

A
--------------------------------------
      

E
--------------------------------------
      

                                               

                                               

-----------------------------------------------


e
-------------------------------------

B
-14/15-----18---14/15----18---14-----

G
--------16------------16-------------

D
-------------------------------------

A
-------------------------------------

E
-------------------------------------


e
--------------------------------------

B
-14/15 ----15----14/15-----15---------

G
--------13--------------13------------
(alot)
D
--------------------------------------

A
--------------------------------------

E
--------------------------------------


e
-----------12------------------------

B
14/15--------------------------------

G
-------------------------------------

D
-------------------------------------

A
-------------------------------------

E
-------------------------------------


D
--------------------------------------

A
-7-9-7-5-7-2--------------------------

E
--------------------------------------



D
--------------------------------------------------

A
--7-9-7--5--7-5-----------------------------------

E
---------------------3-5-2---2-2-4--4-4-6--6-6----
9b


D
-7-9-7---5-7-2----7-9-7--5-7-5------------------------

A
-----------------------------------------5-7-5--3-5-2-

E
------------------------------------------------------


D
-------------------------------------------------

A
-------------------------------------------------

E
-0-0--2---2-2--4--4-4--6----6bbb-----------------


    Tr~               ~                ~                ~
D
-5-5----5-5-5--5----5-5-5--5----5-5-5--5-----5-5-5-----

A
-5-5----5-5-5--5----5-5-5--5----5-5-5--5-----5-5-5-----

E
-3-3----3-3-3--3----3-3-3--3----3-3-3--3-----3-3-3-----



    Tr~               ~               ~              ~
D
-4-4---4-4-4--4----4-4-4--4---4-4-4--4--------------------

A
-4-4---4-4-4--4----4-4-4--4---4-4-4--4----3---------------

E
-2-2---2-2-2--2----2-2-2--2---2-2-2--2--------5-----------



e
--------------2---------------------

B
---2--------2-----------------------

G
-3---2----2-------------------------

D
--------1---------------------------
  (2x)
A
------------------------------------

E
------------------------------------



e
------------3----3----3----3--3-3-2-

B
---2------3----3----3----3----------

G
-3---2--2----2----2----2------------

D
------------------------------------

A
------------------------------------

E
------------------------------------

E
------------------------------------


e
--------------2---------------------

B
---2--------2-----------------------

G
-3---2----2-------------------------

D
--------1---------------------------
  (2x)
A
------------------------------------

E
------------------------------------



e
--------------5----5----5----5--5-5-3-

B
---2--------5----5----5----5----------

G
-3---2----5----5----5----5------------

D
--------3----3----3----3--------------

A
--------------------------------------

E
--------------------------------------

E
--------------------------------------


e
--------------2---------------------

B
---2--------2-----------------------

G
-3---2----2-------------------------

D
--------1---------------------------
  (2x)
A
------------------------------------

E
------------------------------------


e
-------------7-----7----7----7--7-7-5-

B
---2-------7-----7----7----7----------

G
-3---2---7-----7----7----7------------

D
-------5-----5----5----5--------------

A
--------------------------------------

E
--------------------------------------


e
--------------------------------------

B
--------------------------------------

G
-7-7--7-7--7-7--7-7--7-7--7-7--7-7----
1/
D
-7-7--7-7--7-7--7-7--7-7--7-7--7-7----
1/til when ever
A
-5-5--5-5--5-5--5-5--5-5--5-5--5-5----
1/
E
--------------------------------------



e
-------------------------------------

B
-------------------------------------

G
-6~--4~---4~---8~--------------------

D
-6---4----4----8---------------------
 (4x)
A
-4---2----2----6---------------------

E
-------------------------------------


e
-------------------------------------

B
-------------------------------------

G
-4~------6~--------------------------

D
-4-------6---------------------------

A
-2-------4---------------------------

E
-------------------------------------


D
-------------------------------------------

A
---------------------------------------8---

E
-7-9-7-9-7-9-7-9-7-9-7-9-7-9-7-9-7-9-----7-


D
-------------------------------------

A
---------------8---------------------

E
-7-9--7-9--7-9---7-7-9-7-9--7-9------



Play this around 7x
D
-11---9------------------------------

A
-11---9------------------------------

E
-11---9------------------------------


D
---7-------------------------------

A
-9---8-10--------------------------
 (6x)
E
-----------------------------------

p.m. . . ..


D
---------------4-6-4--3-2-1--

A
---7-9-7--5-7----------------
 (2x)
E
-9---------------------------



D
-x-x-x-x-x-x--9--x-x-x-x-x-x9/7--------

A
-x-x-x-x-x-x--9--x-x-x-x-x-x9/7--------

E
-x-x-x-x-x-x--7--x-x-x-x-x-x7/5--------



These play at the same time, just choose the one you want to play:
Either one play a lot though
                                                

e
-------------------------------------         

B
-------------------------------------         

G
-6~--4~---4~---8~--------------------         

D
-6---4----4----8---------------------         

A
-4---2----2----6---------------------         

E
-------------------------------------         


                                                

D
---------------4-6-4--3-2-1--                 

A
---7-9-7--5-7----------------                 

E
-----------------------------                 

                                                

------------------------------------------------


D
-x-x-x-x-x-x--9--7--3--x-x-x-x-x-x--9-10--9--7-

A
-x-x-x-x-x-x--9--7--3--x-x-x-x-x-x--9-10--9--7-

E
-x-x-x-x-x-x--7--5--1--x-x-x-x-x-x--7-8---7--5-



e
----------------------------------------

B
----------------------------------------

G
-4-4-4-4-4-4-4-4-4-4-4-4---6-8--6-6-----

D
-4-4-4-4-4-4-4-4-4-4-4-4---6-8--6-6-6---

A
-2-2-2-2-2-2-2-2-2-2-2-2---4-6--4-4-6---

E
------------------------------------4---


e
--------------7p5---------------------11-

B
---7-5------7----5-7------------------11-

G
-7-----7--7----------6-7-9/10-9-10-11-11-

D
-----------------------------------------

A
-----------------------------------------

E
-----------------------------------------



e
-------------------------------------

B
-------------------------------------

G
-6~--4~---4~---8~--------------------

D
-6---4----4----8---------------------
  (8x)
A
-4---2----2----6---------------------

E
-------------------------------------


e
-------------------------------------

B
-------------------------------------

G
-4~------6~--------------------------

D
-4-------6---------------------------

A
-2-------4---------------------------

E
-------------------------------------


e
-------------------------------------

B
-------------------------------------

G
-----------------------------5-7-7-4-

D
-9-9/7--7-9-7-5--5-5-5--7-4----------

A
-9-9/7-------------------------------

E
-7-7/5-------------------------------


Play this however many times
e
-----------------------------------

B
-----------------------------------

G
-----------------------------------

D
-----9--7-5------------------------

A
-7---------------------------------

E
-----------------------------------



D
----------7-8-7-6-4----------------

A
-7-9-7-6---------------------------

E
-----------------------------------


D
-----9--7-5------------------------

A
-7---------------------------------

E
-----------------------------------



e
-----------------------------------

B
-----------------------------------

G
----9-7-5-3/9----------------------

D
-9--9-7-5-3/9----------------------
 (4x)
A
-9--7-5-3-1/7----------------------

E
-7---------------------------------


e
-----------------------------------

B
-----------------------------------

G
-9-9-9-9-9-------------------------

D
-9-9-9-9-9------(pause/whispering)-

A
-7-7-7-7-7-------------------------

E
-----------------------------------


D
-9----------7-7-7-7-7/8------------

A
-9-(a lot)--7-7-7-7-7/8------------
 (a lot)
E
-7----------5-5-5-5-5/6------------


D
-----12------10-12----10-12--9-10-9-

A
-10-------10-------10---------------

E
------------------------------------


D
----10--12----10-12----10-12-13-----

A
-10--------10-------10--------------

E
------------------------------------


------------------------------------------------
                                               

Play this part a lot:                          

                                               

D
----10-12----10-12----10-12-9-10-9-          

A
-10-------10-------10--------------          

E
-----------------------------------          

                                               

D
----10--12----10-12----10-12-13-----         

A
-10--------10-------10--------------         

E
------------------------------------         

                                               

------------------------------------------------

now all of the rest of this I cant hear if you know what it is then plz e-mail me and  Ill fix it

here are two parts  near the end, play this:

e
--12/till when ever----------


D
-----3/til when ever------------

A
---2----------------------------

E
-1------------------------------



 


/
How To Set Up Higher Praise As Your Home Page
Copyright 1999, Higher Praise HigherPraise,Inc. All rights reserved. Terms of Use

Enjoy A Life Changing Experience

 
 
 
HigherPraise, Higher Praise, HigherPraise, Higher Praise, HigherPraise

Members..Sign Up. LogIn

 
 

Higher Praise Other Sites
 
 

HigherPraise.org/
Praise And Worship
www.higherpraise.org

HigherPraise.net
Christian Resources
www.higherpraise.net

HigherPraiseTube.com
Videos And Audios
www.higherpraisetube.com.


ChristianLyrics.org

Lyrics And Chrords
www.christianlyrics.org

ChristianChordsLyrics

Lyrics And Chrords
www.christianchordslyrics.com

ChristianChordLyrics

Lyrics And Chrords
www.christianchordlyrics.com

WorshipLyrics.org
10.000 Illustrations
www.worshiplyrics.org

WorshipLyrics.net
10.000 Illustrations
www.worshiplyrics.net

PraiseLyrics.com
PowerPoint Lyrics

www.praiselyrics.com

PraiseLyrics.org
PowerPoint Lyrics

www.praiselyrics.org

1GodTube.com
Chistian Videos

www1godtube..com

OneGodTube.com
Chistian Videos

www.onegodtube..com

 

/
Copyright 1999 - 2019, Higher Praise™ HigherPraise™,Inc. All rights reserved. Terms of Use