Desert Song Tabs by Hillsong

Higher Praise - Guitar Chords, Lyrics  GuitarTabs -  Praise nad Worship Music And Christian Songs

Higher Praise - Guitar Tabs, Guitar Chords, Lyrics
   Lyrics, Chords And Tabs
   Popular Lyrics Chords Tab
   Power Point Lyrics
   Praise & Worship Music
   Christian Music Videos
   15900 Videos & Audios
   Midi Files
   Worship Questions
   Christmas Chords, Lyrics
   Lyrics, Chords Tabs Rated

Sermon Outlines And Audio Sermons
   9344 Sermon Outlines
   N.T. Sermon Outlines
   O.T. Sermon Outlines
   Special Guest Outlines
   10.000 Illustrations
   Sunday School Studies
   Bible College Studies
   Greatest Preachers
   Bible Research Tools
Audio Sermons
   2895 Audio Sermons
   85 Sermon Videos
   291 Special Guests Serm

   Complete Audio Bible
Higher Praise Sunday School Teaching
   Children's NT Studies
   Children's OT Studies

   98 Children's Midis
   Gospel For Kids Movie
   Children's JESUS Film
Higher Praise Christian Video Library ,Videos
   Christian Television
   TBN TV Live
   15,000 Videos - HP Tube
   712 Youth Music Vids
  Christian Video Library
   Praise Videos #1 & #2
   85 Sermon Videos
   Prophecy Film -Videos
   JESUS Film -Video
   Childrens JESUS Film
   Gospel For Kids Movie
   Passion Of The Christ
   Noah, Sodom, Sinai, Ark
   Tsunami Videos Photos
News And Information
   Testimonies
   Submit Lyrics, Tabs, Serm
   10.000 Illustrations
   Bible College Course
   Clipart & Web Graphics
   Greatest Preachers
   Complete Talking Bible
   Christian Chat Rooms
   Links Church Resource
   HP Statement Of Faith
Download Clipart
   Audio Sermons
   Clipart & Web Graphics
   Church Administration
   Bible Study Software
   Screen Savers Software
   Verse A Day Software
   Educational Games
   Trade Center Photos

   Soft. Search Engine
Higher Praise News
   Current News
    Archived News
   Submit News
   Newsletter   Higher Praise Interact Prayer
   Prayer For All Needs
   
Submit Lyrics, Sermons
   
Contact Higher Praise
   
Advertising 
   Privacy Policy
//
He Died For You,  Click For Answer! This Is Who Jesus Is Video

'
 
0-9 A B C D E F G H I J K L M N O P Q R S T U V W X Y Z
.

//
Click For Printable...Version Of This File
 

Desert Song


by Hillsong

Share |



-------------------------------------------------------------------------------
Desert song - Hillsong
-------------------------------------------------------------------------------



INTRO
    Gtr1
   Bm            A       G               D
e
-10-----10-----10------10------10------10---

B
----7-----7-------7-------7-------7-------7-

G
------7-----7---------------7-------7-------

D
-(9)-----------(7)--------------------------
      X4
A
----------------------(10)------------------

E
--------------------------------------(10)--


Gtr 2
e
---------------------------10-----9---------

B
----7-------5-----7----/7-----7------10-----

G
-/7------(7)--(7)---------------------------
      X4
D
--------------------------------------------

A
--------------------------------------------

E
--------------------------------------------


VERSE 1
 Gtr 1
  Bm                      A           G     D
 This is   my   prayer   in    the   desert,
e
-10-----10-----10------10------10------10---

B
----7-----7-------7-------7-------7-------7-

G
------7-----7---------------7-------7-------

D
--------------------------------------------
     
A
--------------------------------------------

E
--------------------------------------------


Gtr2 
e
-+7-----------------------------------------

B
-+7-----------------------------------------

G
-+7-----------------------------------------

D
--------------------------------------------

A
--------------------------------------------

E
--------------------------------------------


      Bm                         A       G    D
When all  thatís   within   me   feels   dry
e
-10-----10-----10------10------10------10---

B
----7-----7-------7-------7-------7-------7-

G
------7-----7---------------7-------7-------

D
--------------------------------------------
     
A
--------------------------------------------

E
--------------------------------------------



Gtr2 
e
-------------+5-----------------------------

B
----+5+5------------------------------------

G
-+7------+7---------------------------------

D
--------------------------------------------

A
--------------------------------------------

E
--------------------------------------------


Gtr1
   Bm               A       G            D
  This is my prayer in  my  hunger  and  need
e
-10-----10-----10------10------10------10---

B
----7-----7-------7-------7-------7-------7-

G
------7-----7---------------7-------7-------

D
--------------------------------------------
     
A
--------------------------------------------

E
--------------------------------------------


Gtr2 
e
--------------------------------------------

B
--------------------------------------------

G
--------------------------------------------

D
--------------------------------------------

A
--------------------------------------------

E
--------------------------------------------


Gtr1
      Bm          A          G
  My  God  is  a  God  that  provides
e
-10-----10-----10------10------10------10---

B
----7-----7-------7-------7-------7-------7-

G
------7-----7---------------7-------7-------

D
--------------------------------------------
     
A
--------------------------------------------

E
--------------------------------------------



Gtr2 
e
--------------------------------------------

B
--------------------------------------------

G
--------------------------------------------

D
--------------------------------------------

A
--------------------------------------------

E
--------------------------------------------



Gtr1
   Bm                    A               G    D
  This  is  my  prayer   in     the     fire  
e
-10-----10-----10------10------10------10---

B
----7-----7-------7-------7-------7-------7-

G
------7-----7---------------7-------7-------

D
--------------------------------------------
     
A
--------------------------------------------

E
--------------------------------------------


Gtr 2
e
---------------------------10-----9---------

B
----7-------5-----7----/7-----7------10-----

G
-/7------(7)--(7)---------------------------
      
D
--------------------------------------------

A
--------------------------------------------

E
--------------------------------------------






Gtr1
      Bm                      A    G     D
  In  weakness   or   trial   or   pain  
e
-10-----10-----10------10------10------10---

B
----7-----7-------7-------7-------7-------7-

G
------7-----7---------------7-------7-------

D
--------------------------------------------
     
A
--------------------------------------------

E
--------------------------------------------


Gtr 2
e
---------------------------10-----9---------

B
----7-------5-----7----/7-----7------10-----

G
-/7------(7)--(7)---------------------------
      
D
--------------------------------------------

A
--------------------------------------------

E
--------------------------------------------


Gtr1
      Bm           A        G               D
 There is a faith proved of more worth than gold  
e
-10-----10-----10------10------10------10---

B
----7-----7-------7-------7-------7-------7-

G
------7-----7---------------7-------7-------

D
--------------------------------------------
     
A
--------------------------------------------

E
--------------------------------------------


Gtr 2
e
---------------------------10-----9---------

B
----7-------5-----7----/7-----7------10-----

G
-/7------(7)--(7)---------------------------
      
D
--------------------------------------------

A
--------------------------------------------

E
--------------------------------------------


Gtr1
      Bm                A             G      
 So  refine  me  lord  through  the   flame  
e
-10-----10-----10------10------10------10---

B
----7-----7-------7-------7-------7-------7-

G
------7-----7---------------7-------7-------

D
--------------------------------------------
     
A
--------------------------------------------

E
--------------------------------------------


Gtr 2
e
--------------------------------------------

B
----7-------5-----7-------------/10---------

G
-/7------(7)--(7)-----------(7)------7------
      
D
--------------------------------------------

A
--------------------------------------------

E
--------------------------------------------


CHORUS
                 D                    A                G                       A
And I will bring praise, I will bring praise no weapon formed against me shall remain
e
--------------5------5-----5--------5-----5----5-----5---5----5------------

B
----------------7------7-----7--------7----7----7------7---7----7ó(etc)----

G
------------------7------7--------------7----7----------7---7--------------

D
---------------------------------------------------------------------------

A
---------------------------------------------------------------------------

E
---------------------------------------------------------------------------


       D               A                  G                 Bm
I will rejoice, I will declare, God is my victory and he is here

(musical interlude)
 Gtr1
   Bm            A       G               D
e
-10-----10-----10------10------10------10---

B
----7-----7-------7-------7-------7-------7-

G
------7-----7---------------7-------7-------

D
-(9)-----------(7)--------------------------
      X2
A
----------------------(10)------------------

E
--------------------------------------(10)--


Gtr 2
e
---------------------------10-----9---------

B
----7-------5-----7----/7-----7------10-----

G
-/7------(7)--(7)---------------------------
      X2
D
--------------------------------------------

A
--------------------------------------------

E
--------------------------------------------


VERSE 2
Bm                A      G      D     Bm               A      G   D     
This is my prayer in the battle, when triumph is still on its way
Bm                   A            G          Bm                    G
I am a conqueror and co-heir with Christ, so firm on his promise I stand   

Chorus

BRIDGE:
D                               Bm                                    
All of my life, in every season you are still God, 
                   A     G                  D
I have a reason to sing, I have a reason to worship

 

 /  slide up

 \  slide down

 h  hammer-on

 p  pull-off

 ~  vibrato

 +  harmonic

 ( ) optional note
===============================================================================


 


/
How To Set Up Higher Praise As Your Home Page
Copyright 1999, Higher Praise HigherPraise,Inc. All rights reserved. Terms of Use

Enjoy A Life Changing Experience

 
 
 
HigherPraise, Higher Praise, HigherPraise, Higher Praise, HigherPraise

Members..Sign Up. LogIn

 
 

Higher Praise Other Sites
 
 

HigherPraise.org/
Praise And Worship
www.higherpraise.org

HigherPraise.net
Christian Resources
www.higherpraise.net

HigherPraiseTube.com
Videos And Audios
www.higherpraisetube.com.


ChristianLyrics.org

Lyrics And Chrords
www.christianlyrics.org

ChristianChordsLyrics

Lyrics And Chrords
www.christianchordslyrics.com

ChristianChordLyrics

Lyrics And Chrords
www.christianchordlyrics.com

WorshipLyrics.org
10.000 Illustrations
www.worshiplyrics.org

WorshipLyrics.net
10.000 Illustrations
www.worshiplyrics.net

PraiseLyrics.com
PowerPoint Lyrics

www.praiselyrics.com

PraiseLyrics.org
PowerPoint Lyrics

www.praiselyrics.org

1GodTube.com
Chistian Videos

www1godtube..com

OneGodTube.com
Chistian Videos

www.onegodtube..com

 

/
© Copyright 1999 - 2019, Higher Praise™ HigherPraise™,Inc. All rights reserved. Terms of Use