Cartoon Network Tabs by Evanescence

Higher Praise - Guitar Chords, Lyrics  GuitarTabs -  Praise nad Worship Music And Christian Songs

Higher Praise - Guitar Tabs, Guitar Chords, Lyrics
   Lyrics, Chords And Tabs
   Popular Lyrics Chords Tab
   Power Point Lyrics
   Praise & Worship Music
   Christian Music Videos
   15900 Videos & Audios
   Midi Files
   Worship Questions
   Christmas Chords, Lyrics
   Lyrics, Chords Tabs Rated

Sermon Outlines And Audio Sermons
   9344 Sermon Outlines
   N.T. Sermon Outlines
   O.T. Sermon Outlines
   Special Guest Outlines
   10.000 Illustrations
   Sunday School Studies
   Bible College Studies
   Greatest Preachers
   Bible Research Tools
Audio Sermons
   2895 Audio Sermons
   85 Sermon Videos
   291 Special Guests Serm

   Complete Audio Bible
Higher Praise Sunday School Teaching
   Children's NT Studies
   Children's OT Studies

   98 Children's Midis
   Gospel For Kids Movie
   Children's JESUS Film
Higher Praise Christian Video Library ,Videos
   Christian Television
   TBN TV Live
   15,000 Videos - HP Tube
   712 Youth Music Vids
  Christian Video Library
   Praise Videos #1 & #2
   85 Sermon Videos
   Prophecy Film -Videos
   JESUS Film -Video
   Childrens JESUS Film
   Gospel For Kids Movie
   Passion Of The Christ
   Noah, Sodom, Sinai, Ark
   Tsunami Videos Photos
News And Information
   Testimonies
   Submit Lyrics, Tabs, Serm
   10.000 Illustrations
   Bible College Course
   Clipart & Web Graphics
   Greatest Preachers
   Complete Talking Bible
   Christian Chat Rooms
   Links Church Resource
   HP Statement Of Faith
Download Clipart
   Audio Sermons
   Clipart & Web Graphics
   Church Administration
   Bible Study Software
   Screen Savers Software
   Verse A Day Software
   Educational Games
   Trade Center Photos

   Soft. Search Engine
Higher Praise News
   Current News
    Archived News
   Submit News
   Newsletter   Higher Praise Interact Prayer
   Prayer For All Needs
   
Submit Lyrics, Sermons
   
Contact Higher Praise
   
Advertising 
   Privacy Policy
//
He Died For You,  Click For Answer! This Is Who Jesus Is Video

'
 
0-9 A B C D E F G H I J K L M N O P Q R S T U V W X Y Z
.

//
Click For Printable...Version Of This File
 

Cartoon Network


by Evanescence

Share |



Amy Lee "Cartoon network"
Standard tuning


d  down strum
u  up strum
* down strum, but stop from ringing out

**NOTE**
All chords that are held long enough to ring out do. it's just that after a while i 
to put the ~~s in, and didnt feel like going back and puting them all in.

I love this song, it makes me laugh. I know it's not perfect, but i got it as close as i 
some parts were hard to here over Amy. If you figure out the corrections, message or 
me. the chords used are G, Em, C, D7 and D


"Hi, I'm..."  "I guess..."  "When we..."  "I'm happy..."

-3~~-------
 
-0~~-------
 
-0~~-------
 
-----2~~-----

-3~~-------
 
-0~~-------
 
-1~~-------
 
-----1~~-----

-0~~-------
 
-0~~-------
 
-0~~-------
 
-----2~~-----

-0~~-------
 
-2~~-------
 
-2~~-------
 
-----0~~-----

-2~~-------
 
-2~~-------
 
-3~~-------
 
-----0~~-----

-3~~-------
 
-0~~-------
 
-0~~-------
 
-----0~~-----

  d             d             d                 d


"I think Samurai Jack's cool" "And Dexter's laboratory"

-3~~-------3~~---3~~---333--33--
-0~~-------0~~---0-00-000--

-3~~-------3~~---3~~---333--33--
-0~~-------0~~---0-00-000--

-0~~-------0~~---0~~---000--00--
-0~~-------0~~---0-00-000--

-0~~-------0~~---0~~---000--00--
-2~~-------2~~---2-22-222--

-2~~-------2~~---2~~---222--22--
-2~~-------2~~---2-22-222--

-3~~-------3~~---3~~---333--33--
-0~~-------0~~---0-00-000--

  d         d     d     dud  du    d         d     d du udu


"I miss watching Powerpuff"  "I miss watching T.V."

-0~~----0--------0-0-0-----
-2--2----2--2----2-222-222--

-1~~----1--------1-1-1-----
-3--3----3--3----3-333-333--

-0~~----0--------0-0-0-----
-2--2----2--2----2-222-222--

-2~~----2--------2-2-2-----
-0--0----0--0----0-000-000--

-3~~----3--------3-3-3-----
----------------------------

-0~~----0--------0-0-0-----
----------------------------

  d      d        d d u       d  u    d  d    u ddu ddu


"living on the tourbus ain't that bad"

-0----00--------00-0-0-0--0------3-333-33-3-333--33--

-1----11--------11-1-1-1--1------3-333-33-3-333--33--

-0----00--------00-0-0-0--0------0-000-00-0-000--00--

-2----22--------22-2-2-2--2------0-000-00-0-000--00--

-3----33--------33-3-3-3--3------2-222-22-2-222--22--

-0----00--------00-0-0-0--0------3-333-33-3-333--33--

  d    ud        uu d u u  d      d dud du u dud  du


"But I feel like I lost all that I had"

----0~~-----0~~--00~~-----00~~---0-2---2--

----1~~-----1~~--11~~-----11~~---1-3---3--

----0~~-----0~~--00~~-----00~~---0-2---2--

----2~~-----2~~--22~~-----22~~---2-0---0--

----3~~-----3~~--33~~-----33~~---3--------

----0~~-----0~~--00~~-----00~~---0--------

     d       d    ud       ud     u d   d


 "On Cartoon Network, I miss you so"

-2-222--2----3-----3-33-3-333---0-000-0--

-3-333--3----3-----3-33-3-333---0-000-0--

-2-222--2----0-----0-00-0-000---0-000-0--

-0-000--0----0-----0-00-0-000---2-222-2--

-------------2-----2-22-2-222---2-222-2--

-------------3-----3-33-3-333---0-000-0--

  d dud  d    d     d du d dud   d dud d


"On, Cartoon Network, Where did  you go?"

-2---2--2----3-----3---33---3-333---0--

-3---3--3----3-----3---33---3-333---0--

-2---2--2----0-----0---00---0-000---0--

-0---0--0----0-----0---00---0-00----2--

-------------2-----2---22---2-222---2--

-------------3-----3---33---3-333---0--

  d   *  *    d     d   du   d dud   d


"Grim and Evil"      "How I love that little brain"

-0-------0-0-0000--
--------2---------2-------2--2222-22--0-0-

-0-------0-0-0000--
--------3---------3-------3--3333-33--1-1-

-0-------0-0-0000--
--------2---------2-------2--2222-22--0-0-

-2-------2-2-2222--
--------0---------0-------0--0000-00--2-2-

-2-------2-2-2222--
--------------------------------------3-3-

-0-------0-0-0000--
--------------------------------------0-3-

  d       d d duud           d         d       d  udud du  d d


"Johnny Bravo, Can I smack you once again?"

-0-----0-0-00---------2-------2------2----

-1-----1-1-11---------3-------3------3----

-0-----0-0-00---------2-------2------2----

-2-----2-2-22---------0-------0------0----

-3-----3-3-33-----------------------------

-0-----0-0-00-----------------------------

  u     d d ud         d       d      d


"I hope you've learned a lesson here"   "Treasure what you have"

---3-----------3------33-3--33--3-33--
-0-----------------------0-

---3-----------3------33-3--33--3-33--
-0-----------------------0-

---0-----------0------00-0--00--0-00--
-0-----------------------0-

---0-----------0------00-0--00--0-00--
-2-----------------------2-

---2-----------2------22-2--22--2-22--
-2-----------------------2-

---3-----------3------33-3--33--3-33--
-0-----------------------0-

    d           d      du d  du  d du    d


"Don't make the mistake I made, The rockstar life is sad"

-0-----0--------0------0--000-
-----2---------2-2---2-22-2-22--

-1-----1--------1------1--111-
-----3---------3-3---3-33-3-33--

-0-----0--------0------0--000-
-----2---------2-2---2-22-2-22--

-2-----2--------2------2--222-
-----0---------0-0---0-00-0-00--

-3-----3--------3------3--333-
--------------------------------

-0-----0--------0------0--000-
--------------------------------

  d     d        d      d  udu       d         u u   d du d du


"Well living on the tourbus is........pretty bad"

------0----00-------0---00--00-3-333-333----3-3333--

------1----11-------1---11--11-3-333-333----3-3333--

------0----00-------0---00--00-0-000-000----0-0000--

------2----22-------2---22--22-0-000-000----0-0000--

------3----33-------3---33--33-2-222-222----2-2222--

------0----00-------0---00--00-3-333-333----3-3333--

       d    ud       d   ud  du d dud dud    d uudu--



"And now I'm sure I know"      "the meaning of my life"

-----0------0---0--0--000-0-00--
--2--2----2--2--2----2222-22--

-----1------1---1--1--111-1-11--
--3--3----3--3--3----3333-33--

-----0------0---0--0--000-0-00--
--2--2----2--2--2----2222-22--

-----2------2---2--2--222-2-22--
--0--0----0--0--0----0000-00--

-----3------3---3--3--333-3-33--
------------------------------

-----0------0---0--0--000-0-00--
------------------------------

      d      d   u  d  udu d du     d  u    d  u  d    udud du


"The love within my soul"         "The reason I wake up each day"

----2----2---2--2--2----2222-22--
-----2--------2-----------2---

----3----3---3--3--3----3333-33--
-----1--------1-----------1---

----2----2---2--2--2----2222-22--
-----2--------2-----------2---

----0----0---0--0--0----0000-00--
------------------------------

---------------------------------
------------------------------

---------------------------------
------------------------------

     d    u   d  u  d    udud du        d        d           d


 "And it's Cartoon Network, I mi----ss you so"

-2---2-----2-------3-----3----3-33-3------0-00-0--

-1---1-----1-------3-----3----3-33-3------0-00-0--

-2---2-----2-------0-----0----0-00-0------0-00-0--

-------------------0-----0----0-00-0------2-22-2--

-------------------2-----2----2-22-2------2-22-2--

-------------------3-----3----3-33-3------0-00-0--

  d   u     d       d     d    d du d      d du d


 "My Cartoon   Network, Where di--d you go? My Cartoon Network"

-0---2--2--22-3-33---3-3-----3--3------0-------2------3-------

-0---3--3--33-3-33---3-3-----3--3------1-------3------3-------

-0---2--2--22-0-00---0-0-----0--0------0-------2------0-------

-2---0--0--00-0-00---0-0-----0--0------2-------0------0-------

-2------------2-22---2-2-----2--2------3--------------2-------

-0------------3-33---3-3-----3--3------0--------------3-------

  d   *  d  du d du  d  d     d  d      d       d      d
 


/
How To Set Up Higher Praise As Your Home Page
Copyright 1999, Higher Praise HigherPraise,Inc. All rights reserved. Terms of Use

Enjoy A Life Changing Experience

 
 
 
HigherPraise, Higher Praise, HigherPraise, Higher Praise, HigherPraise

Members..Sign Up. LogIn

 
 

Higher Praise Other Sites
 
 

HigherPraise.org/
Praise And Worship
www.higherpraise.org

HigherPraise.net
Christian Resources
www.higherpraise.net

HigherPraiseTube.com
Videos And Audios
www.higherpraisetube.com.


ChristianLyrics.org

Lyrics And Chrords
www.christianlyrics.org

ChristianChordsLyrics

Lyrics And Chrords
www.christianchordslyrics.com

ChristianChordLyrics

Lyrics And Chrords
www.christianchordlyrics.com

WorshipLyrics.org
10.000 Illustrations
www.worshiplyrics.org

WorshipLyrics.net
10.000 Illustrations
www.worshiplyrics.net

PraiseLyrics.com
PowerPoint Lyrics

www.praiselyrics.com

PraiseLyrics.org
PowerPoint Lyrics

www.praiselyrics.org

1GodTube.com
Chistian Videos

www1godtube..com

OneGodTube.com
Chistian Videos

www.onegodtube..com

 

/
Copyright 1999 - 2019, Higher Praise™ HigherPraise™,Inc. All rights reserved. Terms of Use