Columbia Tabs by Destroy The Runner

Higher Praise - Guitar Chords, Lyrics  GuitarTabs -  Praise nad Worship Music And Christian Songs

Higher Praise - Guitar Tabs, Guitar Chords, Lyrics
   Lyrics, Chords And Tabs
   Popular Lyrics Chords Tab
   Power Point Lyrics
   Praise & Worship Music
   Christian Music Videos
   15900 Videos & Audios
   Midi Files
   Worship Questions
   Christmas Chords, Lyrics
   Lyrics, Chords Tabs Rated

Sermon Outlines And Audio Sermons
   9344 Sermon Outlines
   N.T. Sermon Outlines
   O.T. Sermon Outlines
   Special Guest Outlines
   10.000 Illustrations
   Sunday School Studies
   Bible College Studies
   Greatest Preachers
   Bible Research Tools
Audio Sermons
   2895 Audio Sermons
   85 Sermon Videos
   291 Special Guests Serm

   Complete Audio Bible
Higher Praise Sunday School Teaching
   Children's NT Studies
   Children's OT Studies

   98 Children's Midis
   Gospel For Kids Movie
   Children's JESUS Film
Higher Praise Christian Video Library ,Videos
   Christian Television
   TBN TV Live
   15,000 Videos - HP Tube
   712 Youth Music Vids
  Christian Video Library
   Praise Videos #1 & #2
   85 Sermon Videos
   Prophecy Film -Videos
   JESUS Film -Video
   Childrens JESUS Film
   Gospel For Kids Movie
   Passion Of The Christ
   Noah, Sodom, Sinai, Ark
   Tsunami Videos Photos
News And Information
   Testimonies
   Submit Lyrics, Tabs, Serm
   10.000 Illustrations
   Bible College Course
   Clipart & Web Graphics
   Greatest Preachers
   Complete Talking Bible
   Christian Chat Rooms
   Links Church Resource
   HP Statement Of Faith
Download Clipart
   Audio Sermons
   Clipart & Web Graphics
   Church Administration
   Bible Study Software
   Screen Savers Software
   Verse A Day Software
   Educational Games
   Trade Center Photos

   Soft. Search Engine
Higher Praise News
   Current News
    Archived News
   Submit News
   Newsletter   Higher Praise Interact Prayer
   Prayer For All Needs
   
Submit Lyrics, Sermons
   
Contact Higher Praise
   
Advertising 
   Privacy Policy
//
He Died For You,  Click For Answer! This Is Who Jesus Is Video

'
 
0-9 A B C D E F G H I J K L M N O P Q R S T U V W X Y Z
.

//
Click For Printable...Version Of This File
 

Columbia


by Destroy The Runner

Share |



#----------------------------------PLEASE NOTE---------------------------------#
#This file is the author's own work and represents their interpretation of the #
#song. You may only use this file for private study, scholarship, or research. #
#------------------------------------------------------------------------------#

COLUMBIA
As recorded by Destroy the Runner

Transcribed by MidgtGuitarist
	



Gtr I (C G C F A D) - 'Untitled'
Gtr II (C G C F A D) - 'Untitled'
Gtr III (C G C F A D) - 'Untitled'
Gtr IV (C G C F A D) - 'Untitled'

 Intro
  Q=175
 4/4
  Gtr I
  E E E E Q.   E   +E  E E E  E  E E E

----------------
---------------------

----------------
---------6--5--------

-------5------7-
-(7)-5---------5-----

-----3---5------
-------7---------7-5-

---x------------
---------------------

---x------------
---------------------



 Gtr III

 W                +H        +E  E E E

----------------
---------------------

----------------
---------------------

----------------
---------------------

-0--------------
-(0)-------(0)-2---3-

-0--------------
-(0)-------(0)-3---3-

-0--------------
-(0)-------(0)-2---3-



                           PM     PM
  +E   S S E E E E E  E    E   E  E E E E Q

-----------------------
---------------------

--------------------10-
------8----6h8p6-----

----------5---7-5------
-----------------7---

-(5)--5h7---7-----7----
-10-----10-----------

-----------------------
---------------------

-----------------------
---------------------



 +H..                E   +H..              E

-----------------------
---------------------

-----------------------
---------------------

-----------------------
---------------------

-(3)-----------------8-
-(8)---------------0-

-(3)-----------------8-
-(8)---------------0-

-(3)-----------------8-
-(8)---------------0-



  +E  E E E Q.   E   +E  E E E  E  E E E

------------------
---------------------

------------------
---------6--5--------

-(7)-----5------7-
-(7)-5---------5-----

-------3---5------
-------7---------7-5-

-----x------------
---------------------

-----x------------
---------------------



 +W                 +H        +E  E E E

------------------
---------------------

------------------
---------------------

------------------
---------------------

-(0)--------------
-(0)-------(0)-2---3-

-(0)--------------
-(0)-------(0)-3---3-

-(0)--------------
-(0)-------(0)-2---3-



                           PM     PM
  +E   S S E E E E E  E    E   E  E E E    +E  +Q

-----------------------
-------------8b10-(8)-(8)----

--------------------10-
------8----6-----------------

----------5---7-5------
-----------------------------

-(5)--5h7---7-----7----
-10-----10-------------------

-----------------------
-----------------------------

-----------------------
-----------------------------



 +H..                E   +H..                     E

-----------------------
-----------------------------

-----------------------
-----------------------------

-----------------------
-----------------------------

-(3)-----------------8-
-(8)----------------------0--

-(3)-----------------8-
-(8)----------------------0--

-(3)-----------------8-
-(8)----------------------0--



   E  E E   E   Q.       E     +E  E E E E   E   E E

----------------------------
-----------------------

----------------------------
---------6-5-----------

-----------5------------7---
-(7)-5---------5-------

-------3-------5------------
-------7-----------7-5-

-----x----------------------
-----------------------

-----x----------------------
-----------------------



     PM-------------------
             PM------

 +E  E S S S S S  S S Q   S    H        S S S S E E

----------------------------
-----------------------

----------------------------
-----------------------

----------------------------
-----------------------

-(0)------------------------
---------------------3-

-(0)---0-0-0---0--0-0-------
-----------0-0-0---0-3-

-(0)-0-0-0-0---0--0-0-------
-----------0-0-0---0-3-



                                    PM   PM
  +E  S S E   E   E   E   E  E      E E  E E E   E   Q

--------------------------------
------------------------

---------------------------10---
----8----6h8p==6--------

---------5-------7---5----------
-------------------7----

-(5)-5h7-----7-----------7------
-10---10----------------

--------------------------------
------------------------

--------------------------------
------------------------



     PM-----------------------
             PM------

 +E  E   S S S S S S S Q      S    H        S S S S E E

--------------------------------
------------------------

--------------------------------
------------------------

--------------------------------
------------------------

-(3)----------------------------
---------------------0--

-(3)-----3-3-3---3-3-3----------
-----------3-3-3---3-0--

-(3)-3---3-3-3---3-3-3----------
-----------3-3-3---3-0--



 Intro Chorus
  +E  E E   E   Q.       E     +E  E E E E   E   E E

----------------------------
-----------------------

----------------------------
---------6-5-----------

-(7)-------5------------7---
-(7)-5---------5-------

-------3-------5------------
-------7-----------7-5-

-----x----------------------
-----------------------

-----x----------------------
-----------------------



     PM-------------------
             PM------

 +E  E S S S S S  S S Q   S    H        S S S S E E

----------------------------
-----------------------

----------------------------
-----------------------

----------------------------
-----------------------

-(0)------------------------
---------------------8-

-(0)---0-0-0---0--0-0-------
-----------0-0-0---0-8-

-(0)-0-0-0-0---0--0-0-------
-----------0-0-0---0-8-



                                   PM     PM
  +E  S S E   E   E   E   E  E     E   E  E     E    E       +E    +Q

------------------------------
---------------------8b10----(8)---(8)---

---------------------------10-
-------8--------6------------------------

---------5-------7---5--------
-----------------------------------------

-(5)-5h7-----7-----------7----
--10-----10------------------------------

------------------------------
-----------------------------------------

------------------------------
-----------------------------------------



     PM--------------
      PM        PM--------------------
         PM

 +E  E   S S S S S S S S E  E    +E   E  S  S  S S  S     S  S  S  E  E

------------------------------
-----------------------------------------

------------------------------
-----------------------------------------

------------------------------
-----------------------------------------

-(8)-----------------------10-
-(10)----------------------------------0-

-(8)-----8-8-8---8-8-8---8-10-
-(10)----10-10-10---10----10-10----10--0-

-(8)-8---8-8-8---8-8-8---8-10-
-(10)-10-10-10-10---10----10-10----10--0-



  Gtr I
   E  E E E  Q.      E    +E  E  E  E E E  E E

----------------------
-----------------------

----------------------
------------6-5--------

---------5----------7-
--(7)-5---------5------

-------3----5---------
---------7---------7-5-

-----x----------------
-----------------------

-----x----------------
-----------------------



 Gtr II

  E  E E E  Q.      E    +E  E  E  E E E  E E

----------------------
-----------------------

----------------------
-----------10-8--------

---------9---------10-
-(10)-9---------9------

-------7---10---------
--------10--------10-8-

-----x----------------
-----------------------

-----x----------------
-----------------------



 Gtr III

 +E  E Q    E  E E  E    +E  E  Q    E E  E E

----------------------
-----------------------

----------------------
-----------------------

----------------------
-----------------------

-(0)-0-0----0--0-0--0-
--(0)-0--0----0-2----3-

-(0)-0-0----0--0-0--0-
--(0)-0--0----0-3----3-

-(0)-0-0----0--0-0--0-
--(0)-0--0----0-2----3-



                              PM    PM
  +E  S  S E  E  E E  E  E    E  E  E E  E  E  Q

--------------------------
------------------------

-----------------------10-
-----8----6h=8p=6-------

----------5-----7-5-------
-------------------7----

-(5)-5h=7----7-------7----
-10----10---------------

--------------------------
------------------------

--------------------------
------------------------



                             PM    PM

 +E  S  S E  E  E E  E  E    E  E  E E  E  E  Q

--------------------------
------------------------

--------------------------
------------------------

----------9----10-9----10-
-----9----7h=9p=7-------

-(8)-8h10---10------10----
-10----10----------7----

--------------------------
------------------------

--------------------------
------------------------



 +E  E    Q     E E  E  E   +E  E  Q    E  E  E E

--------------------------
------------------------

--------------------------
------------------------

--------------------------
------------------------

-(3)-3----3-----3-3--3--8-
-(8)-8--8---10-10-10-0--

-(3)-3----3-----3-3--3--8-
-(8)-8--8---10-10-10-0--

-(3)-3----3-----3-3--3--8-
-(8)-8--8---10-10-10-0--



  +E  E E E  Q.      E    +E  E  E  E E E  E E

----------------------
-----------------------

----------------------
------------6-5--------

-(7)-----5----------7-
--(7)-5---------5------

-------3----5---------
---------7---------7-5-

-----x----------------
-----------------------

-----x----------------
-----------------------



 +E  E E E  Q.      E    +E  E  E  E E E  E E

----------------------
-----------------------

----------------------
-----------10-8--------

---------9---------10-
-(10)-9---------9------

-(7)---7---10---------
--------10--------10-8-

-----x----------------
-----------------------

-----x----------------
-----------------------



 +E  E Q    E  E E  E    +E  E  Q    E E  E E

----------------------
-----------------------

----------------------
-----------------------

----------------------
-----------------------

-(0)-0-0----0--0-0--0-
--(0)-0--0----0-2----3-

-(0)-0-0----0--0-0--0-
--(0)-0--0----0-3----3-

-(0)-0-0----0--0-0--0-
--(0)-0--0----0-2----3-



                              PM   PM
  +E  S  S E  E  E E  E  E    E E  E E  E    +E  +Q

--------------------------
------------8b10-(8)-(8)---

-----------------------10-
----8----6-----------------

----------5-----7-5-------
---------------------------

-(5)-5h=7----7-------7----
-10---10-------------------

--------------------------
---------------------------

--------------------------
---------------------------



                             PM   PM

 +E  S  S E  E  E E  E  E    E E  E E  E    +E  +Q

--------------------------
---------------------------

--------------------------
---------------------------

----------9----10-9----10-
----9----7--9b10-(9)-(9)---

-(8)-8h10---10------10----
-10---10-------------------

--------------------------
---------------------------

--------------------------
---------------------------



 +E  E    Q     E E  E  E    E E  E E  H

--------------------------
---------------------------

--------------------------
---------------------------

--------------------------
---------------------------

-(3)-3----3-----3-3--3--8-
----8----8-10--------------

-(3)-3----3-----3-3--3--8-
----8----8-10--------------

-(3)-3----3-----3-3--3--8-
----8----8-10--------------



 Verse
  Gtr IV                                    Gtr
    PM
   PM
   PM--

  E S S E S S E S S E E   +E    E E E E E E E

-----------------------
---------------------

-----------------------
---------------------

-----------------------
---------------------

-0---------------------
---------5-7-------0-

-0-----8-----7---------
-------------8-7-5-0-

-0-0-0---0-0---0-0-0-8-
-(8)--10-----------0-



 W                        H..              E

-----------------------
---------------------

-----------------------
---------------------

-----------------------
---------------------

-----------------------
-------------------0-

-----------------------
-------------------0-

-----------------------
-------------------0-



  I
      PM
   PM
   PM--

  +E  S S E S S E S S E E   +E  E  E Q   E E E

-------------------------
--------------------

-------------------------
--------------------

-------------------------
--------------------

-(0)---------------------
----------7-------0-

-(0)-----8-----7-------7-
-(7)-8-10----10-8-0-

-(0)-0-0---0-0---0-0-0---
------------------0-



     PM
   PM
   PM--

 +E  S S E S S E S S E E   +E  E  E Q   E E E

-------------------------
--------------------

-------------------------
--------------------

-------------------------
----------5---------

-(0)-----7-----5-------5-
-(5)-7--8-----7-5-0-

-(0)---------------------
------------------0-

-(0)-0-0---0-0---0-0-0---
------------------0-



      PM
   PM
   PM--

  +E  S S E S S E S S E E   +E   E E E E E E E

-------------------------
--------------------

-------------------------
--------------------

-------------------------
--------------------

-(0)---------------------
--------5-7-------0-

-(0)-----8-----7---------
------------8-7---0-

-(0)-0-0---0-0---0-0-0-8-
-(8)-10---------8-0-



     PM
   PM
   PM--

 +E  S S E S S E S S E E   +E   E E E E E E E

-------------------------
--------------------

-------------------------
--------------------

-------------------------
----------5---------

-(0)-----7-----5---------
------------7-5---0-

-(0)-------------------5-
-(5)--7-7-------5-0-

-(0)-0-0---0-0---0-0-0---
------------------0-



      PM
   PM
   PM--

  +E  S S E S S E S S E E   E E E E E Q  E

-------------------------
----------------

-------------------------
----------------

-------------------------
----------------

-(0)-------------------3-
---3---3---2--0-

-(0)-----8-----7-------5-
---5---5---3--0-

-(0)-0-0---0-0---0-0-0---
--------------0-



     PM
   PM
   PM--

 +E  S S E S S E S S E E   E E E E E Q  E

-------------------------
----------------

-------------------------
----------------

-----------------------7-
---7---7---5----

-(0)-----7-----5-------7-
---7---7---5--0-

-(0)---------------------
--------------0-

-(0)-0-0---0-0---0-0-0---
--------------0-



      PM
   PM
   PM--

  +E  S S E S S E S S E E   +E   E E E E E E E

-------------------------
--------------------

-------------------------
--------------------

-------------------------
--------------------

-(0)---------------------
--------5-7-------0-

-(0)-----8-----7---------
------------8-7-5-0-

-(0)-0-0---0-0---0-0-0-8-
-(8)-10-----------0-



     PM
   PM
   PM--

 +E  S S E S S E S S E E   +E   E E E E E E E

-------------------------
--------------------

-------------------------
--------------------

-------------------------
----------5---------

-(0)-----7-----5---------
------------7-5---0-

-(0)-------------------5-
-(5)--7-7-------5-0-

-(0)-0-0---0-0---0-0-0---
------------------0-



      PM
   PM
   PM--

  +E  S S E S S E S S E E   +E  E  E Q   E E E

-------------------------
--------------------

-------------------------
--------------------

-------------------------
--------------------

-(0)---------------------
----------7-------0-

-(0)-----8-----7-------7-
-(7)-8-10----10-8-0-

-(0)-0-0---0-0---0-0-0---
------------------0-



     PM
   PM
   PM--

 +E  S S E S S E S S E E   +E  E  E Q   E E E

-------------------------
--------------------

-------------------------
--------------------

-------------------------
----------5---------

-(0)-----7-----5-------5-
-(5)-7--8-----7-5-0-

-(0)---------------------
------------------0-

-(0)-0-0---0-0---0-0-0---
------------------0-



      PM
   PM
   PM--

  +E  S S E S S E S S E E   +E   E E E E E E E

-------------------------
--------------------

-------------------------
--------------------

-------------------------
--------------------

-(0)---------------------
--------5-7-------0-

-(0)-----8-----7---------
------------8-7---0-

-(0)-0-0---0-0---0-0-0-8-
-(8)-10---------8-0-



     PM
   PM
   PM--

 +E  S S E S S E S S E E   +E   E E E E E E E

-------------------------
--------------------

-------------------------
--------------------

-------------------------
----------5---------

-(0)-----7-----5---------
------------7-5---0-

-(0)-------------------5-
-(5)--7-7-------5-0-

-(0)-0-0---0-0---0-0-0---
------------------0-



      PM
   PM
   PM--

  +E  S S E S S E S S E E   E E E E E Q  E

-------------------------
----------------

-------------------------
----------------

-------------------------
----------------

-(0)-------------------3-
---2---2---0--0-

-(0)-----8-----7-------5-
---3---3---1--0-

-(0)-0-0---0-0---0-0-0---
--------------0-



     PM
   PM
   PM--

 +E  S S E S S E S S E E   E E E E E Q  E

-------------------------
----------------

-------------------------
----------------

-----------------------7-
---5---5---3----

-(0)-----7-----5-------7-
---5---5---3--0-

-(0)---------------------
--------------0-

-(0)-0-0---0-0---0-0-0---
--------------0-



      PM  PM  PM

  +E  E E E E E E E   +E   E E E E E E E

-------------------
--------------------

-------------------
--------------------

-------------------
--------------------

-(0)---------------
--------5-7-------0-

-(0)---8---7-------
------------8-7-5-0-

-(0)-0---0---0-0-8-
-(8)-10-----------0-



     PM  PM  PM

 +E  E E E E E E E   +E   E E E E E E E

-------------------
--------------------

-------------------
--------------------

-------------------
----------5---------

-(0)---7---5-------
------------7-5---0-

-(0)-------------5-
-(5)--7-7-------5-0-

-(0)-0---0---0-0---
------------------0-



      PM  PM  PM

  +E  E E E E E E E   +E  E  E Q   E E E

-------------------
--------------------

-------------------
--------------------

-------------------
--------------------

-(0)---------------
----------7-------0-

-(0)---8---7-----7-
-(7)-8-10----10-8-0-

-(0)-0---0---0-0---
------------------0-



     PM  PM  PM

 +E  E E E E E E E   +E  E  E Q   E E E

-------------------
--------------------

-------------------
--------------------

-------------------
----------5---------

-(0)---7---5-----5-
-(5)-7--8-----7-5-0-

-(0)---------------
------------------0-

-(0)-0---0---0-0---
------------------0-



      PM  PM  PM
                              PM  PM  PM

  +E  E E E E E E E   +E   E E E E E E E   +E  E E E E E E E   E E E E E Q  E

-------------------
--------------------
-------------------
----------------

-------------------
--------------------
-------------------
----------------

-------------------
--------------------
-------------------
----------------

-(0)---------------
--------5-7-------0-
-(0)-------------3-
---3---3---2----

-(0)---8---7-------
------------8-7---0-
-(0)---8---7-----5-
---5---5---3----

-(0)-0---0---0-0-8-
-(8)-10---------8-0-
-(0)-0---0---0-0---
--------------8-



     PM  PM  PM
                              PM  PM  PM

 +E  E E E E E E E   +E   E E E E E E E   +E  E E E E E E E   E E E E E Q  E

-------------------
--------------------
-------------------
----------------

-------------------
--------------------
-------------------
----------------

-------------------
----------5---------
-----------------7-
---7---7---5----

-(0)---7---5-------
------------7-5---0-
-(0)---7---5-----7-
---7---7---5----

-(0)-------------5-
-(5)--7-7-------5-0-
-(0)---------------
--------------5-

-(0)-0---0---0-0---
------------------0-
-(0)-0---0---0-0---
----------------



   Pre-Chorus
        PM
    PM
    PM
    PM
     PM
    PM
    PM
    PM---
    +E  S S  E S S  E S S  E S S   E S S  E S S  E S S  E S S

-------------------------------
----------------------------


o------------------------------
----------------------------


-------------------------------
----------------------------


----------10-------------------
-------10-------------------


o-----8-8----8-8-10-8-8-12-8-8-
---8-8----8-8-10-8-8-12-8-8-


--(8)-8-8----8-8----8-8----8-8-
-8-8-8----8-8----8-8----8-8-



       PM
    PM
    PM
    PM
     PM
    PM
    PM
    PM---

   +E  S S  E S S  E S S  E S S   E S S  E S S  E S S  E S S

-------------------------------
----------------------------


o------------------------------
----------------------------


----------10-------------------
-------10-------------------


------------------8-----10-----
---------------8-----10-----


o-(5)-8-8----8-8----8-8----8-8-
-5-8-8----8-8----8-8----8-8-


------8-8----8-8----8-8----8-8-
---8-8----8-8----8-8----8-8-



 -------------------------------

  S S S S S S S S S S S S S S S S   E E E E E Q  E     3x

---------------------------------
--------------------


---------------------------------
-------------------o


---------------------------------
--------------------


---------------------------------
-2-2---2---3--------


-0---0-0-0---0-0-0---0-0-0---0-0-
-3-3---3---5-------o


-0---0-0-0---0-0-0---0-0-0---0-0-
--------------8-----



-------------------------------

 S S S S S S S S S S S S S S S S   E E E E E Q  E     3x

---------------------------------
--------------------


---------------------------------
-------------------o


---------------------------------
-5-5---5---7--------


---------------------------------
-5-5---5---7--------


-0---0-0-0---0-0-0---0-0-0---0-0-
--------------5----o


-0---0-0-0---0-0-0---0-0-0---0-0-
--------------------



      PM
    PM
    PM
    PM
     PM
    PM
    PM
    PM---
  +E  S S  E S S  E S S  E S S   E S S  E S S  E S S  E S S

------------------------------
----------------------------

------------------------------
----------------------------

------------------------------
----------------------------

---------10-------------------
-------10-------------------

-----8-8----8-8-10-8-8-12-8-8-
---8-8----8-8-10-8-8-12-8-8-

-(8)-8-8----8-8----8-8----8-8-
-8-8-8----8-8----8-8----8-8-



     PM
    PM
    PM
    PM
     PM
    PM
    PM
    PM---

 +E  S S  E S S  E S S  E S S   E S S  E S S  E S S  E S S

------------------------------
----------------------------

------------------------------
----------------------------

---------10-------------------
-------10-------------------

-----------------8-----10-----
---------------8-----10-----

-(5)-8-8----8-8----8-8----8-8-
-5-8-8----8-8----8-8----8-8-

-----8-8----8-8----8-8----8-8-
---8-8----8-8----8-8----8-8-



 -------------------------------

  S S S S S S S S S S S S S S S S   E E E E E Q  E

---------------------------------
-------------------

---------------------------------
-------------------

---------------------------------
-------------------

---------------------------------
-2-2---2---3-------

-0---0-0-0---0-0-0---0-0-0---0-0-
-3-3---3---5-------

-0---0-0-0---0-0-0---0-0-0---0-0-
-------------------



-------------------------------

 S S S S S S S S S S S S S S S S   E E E E E Q  E

---------------------------------
-------------------

---------------------------------
-------------------

---------------------------------
-5-5---5---7-------

---------------------------------
-5-5---5---7--0----

-0---0-0-0---0-0-0---0-0-0---0-0-
--------------0----

-0---0-0-0---0-0-0---0-0-0---0-0-
--------------0----



 Chorus
  Gtr I
   E  E E E Q.     E   +E  E E E E E E E

--------------------
-------------------

--------------------
---------6-5-------

---------5--------7-
-(7)-5-------5-----

-------3---5--------
-------7-------7-5-

-----x--------------
-------------------

-----x--------------
-------------------



 Gtr II

 +E  E Q   E  E E E   +E  E Q   E E E E

--------------------
-------------------

--------------------
-------------------

--------------------
-------------------

-(0)-0-0---0--0-0-0-
-(0)-0-0---0-2---3-

-(0)-0-0---0--0-0-0-
-(0)-0-0---0-3---3-

-(0)-0-0---0--0-0-0-
-(0)-0-0---0-2---3-



                          PM    PM
  +E  S S E E E E E  E    E  E  E E  E  E  Q

----------------------
------------------------

-------------------10-
-----8----6h=8p=6-------

---------5---7-5------
-------------------7----

-(5)-5h7---7-----7----
-10----10---------------

----------------------
------------------------

----------------------
------------------------



 +E  E   Q   E E E  E   +E  E  Q    E  E  E E

----------------------
------------------------

----------------------
------------------------

----------------------
------------------------

-(3)-3---3---3-3-3--8-
-(8)-8--8---10-10-10-0--

-(3)-3---3---3-3-3--8-
-(8)-8--8---10-10-10-0--

-(3)-3---3---3-3-3--8-
-(8)-8--8---10-10-10-0--



  +E  E E E Q.     E   +E  E E E E E E E

--------------------
-------------------

--------------------
---------6-5-------

-(7)-----5--------7-
-(7)-5-------5-----

-------3---5--------
-------7-------7-5-

-----x--------------
-------------------

-----x--------------
-------------------



 +E  E Q   E  E E E   +E  E Q   E E E E

--------------------
-------------------

--------------------
-------------------

--------------------
-------------------

-(0)-0-0---0--0-0-0-
-(0)-0-0---0-2---3-

-(0)-0-0---0--0-0-0-
-(0)-0-0---0-3---3-

-(0)-0-0---0--0-0-0-
-(0)-0-0---0-2---3-



                          PM    PM
  +E  S S E E E E E  E    E  E  E E  E    +E  +Q

----------------------
-------------8b10-(8)-(8)----

-------------------10-
-----8----6------------------

---------5---7-5------
-----------------------------

-(5)-5h7---7-----7----
-10----10--------------------

----------------------
-----------------------------

----------------------
-----------------------------



 +E  E   Q   E E E  E   +E  E  Q    E     E   E  E

----------------------
-----------------------------

----------------------
-----------------------------

----------------------
-----------------------------

-(3)-3---3---3-3-3--8-
-(8)-8--8---10----10--10--0--

-(3)-3---3---3-3-3--8-
-(8)-8--8---10----10--10--0--

-(3)-3---3---3-3-3--8-
-(8)-8--8---10----10--10--0--



   E  E E E Q.     E   +E  E E E E E E E

--------------------
-------------------

--------------------
---------6-5-------

---------5--------7-
-(7)-5-------5-----

-------3---5--------
-------7-------7-5-

-----x--------------
-------------------

-----x--------------
-------------------



 +E  E Q   E  E E E   +E  E Q   E E E E

--------------------
-------------------

--------------------
-------------------

--------------------
-------------------

-(0)-0-0---0--0-0-0-
-(0)-0-0---0-2---3-

-(0)-0-0---0--0-0-0-
-(0)-0-0---0-3---3-

-(0)-0-0---0--0-0-0-
-(0)-0-0---0-2---3-



                          PM    PM
  +E  S S E E E E E  E    E  E  E E  E  E  Q

----------------------
------------------------

-------------------10-
-----8----6h=8p=6-------

---------5---7-5------
-------------------7----

-(5)-5h7---7-----7----
-10----10---------------

----------------------
------------------------

----------------------
------------------------



 +E  E   Q   E E E  E   +E  E  Q    E  E  E E

----------------------
------------------------

----------------------
------------------------

----------------------
------------------------

-(3)-3---3---3-3-3--8-
-(8)-8--8---10-10-10-0--

-(3)-3---3---3-3-3--8-
-(8)-8--8---10-10-10-0--

-(3)-3---3---3-3-3--8-
-(8)-8--8---10-10-10-0--



  +E  E E E Q.     E   +E  E E E E E E E

--------------------
-------------------

--------------------
---------6-5-------

-(7)-----5--------7-
-(7)-5-------5-----

-------3---5--------
-------7-------7-5-

-----x--------------
-------------------

-----x--------------
-------------------



 +E  E Q   E  E E E   +E  E Q   E E E E

--------------------
-------------------

--------------------
-------------------

--------------------
-------------------

-(0)-0-0---0--0-0-0-
-(0)-0-0---0-2---3-

-(0)-0-0---0--0-0-0-
-(0)-0-0---0-3---3-

-(0)-0-0---0--0-0-0-
-(0)-0-0---0-2---3-



                          PM   PM
  +E  S S E E E E E  E    E E  E E  E    +E  +Q

----------------------
------------8b10-(8)-(8)---

-------------------10-
----8----6-----------------

---------5---7-5------
---------------------------

-(5)-5h7---7-----7----
-10---10-------------------

----------------------
---------------------------

----------------------
---------------------------



 +E  E   Q   E E E  E    E E  E E  H

----------------------
---------------------------

----------------------
---------------------------

----------------------
---------------------------

-(3)-3---3---3-3-3--8-
----8----8-10--------------

-(3)-3---3---3-3-3--8-
----8----8-10--------------

-(3)-3---3---3-3-3--8-
----8----8-10--------------



 Verse
  Gtr IV                                    Gtr
    PM
   PM
   PM--

  E S S E S S E S S E E   +E    E E E E E E E

-----------------------
---------------------

-----------------------
---------------------

-----------------------
---------------------

-0---------------------
---------5-7-------0-

-0-----8-----7---------
-------------8-7-5-0-

-0-0-0---0-0---0-0-0-8-
-(8)--10-----------0-



 W                        H..              E

-----------------------
---------------------

-----------------------
---------------------

-----------------------
---------------------

-----------------------
-------------------0-

-----------------------
-------------------0-

-----------------------
-------------------0-



  I
      PM
   PM
   PM--

  +E  S S E S S E S S E E   +E  E  E Q   E E E

-------------------------
--------------------

-------------------------
--------------------

-------------------------
--------------------

-(0)---------------------
----------7-------0-

-(0)-----8-----7-------7-
-(7)-8-10----10-8-0-

-(0)-0-0---0-0---0-0-0---
------------------0-



     PM
   PM
   PM--

 +E  S S E S S E S S E E   +E  E  E Q   E E E

-------------------------
--------------------

-------------------------
--------------------

-------------------------
----------5---------

-(0)-----7-----5-------5-
-(5)-7--8-----7-5-0-

-(0)---------------------
------------------0-

-(0)-0-0---0-0---0-0-0---
------------------0-



      PM
   PM
   PM--

  +E  S S E S S E S S E E   +E   E E E E E E E

-------------------------
--------------------

-------------------------
--------------------

-------------------------
--------------------

-(0)---------------------
--------5-7-------0-

-(0)-----8-----7---------
------------8-7---0-

-(0)-0-0---0-0---0-0-0-8-
-(8)-10---------8-0-



     PM
   PM
   PM--

 +E  S S E S S E S S E E   +E   E E E E E E E

-------------------------
--------------------

-------------------------
--------------------

-------------------------
----------5---------

-(0)-----7-----5---------
------------7-5---0-

-(0)-------------------5-
-(5)--7-7-------5-0-

-(0)-0-0---0-0---0-0-0---
------------------0-



      PM
   PM
   PM--

  +E  S S E S S E S S E E   E E E E E Q  E

-------------------------
----------------

-------------------------
----------------

-------------------------
----------------

-(0)-------------------3-
---3---3---2--0-

-(0)-----8-----7-------5-
---5---5---3--0-

-(0)-0-0---0-0---0-0-0---
--------------0-



     PM
   PM
   PM--

 +E  S S E S S E S S E E   E E E E E Q  E

-------------------------
----------------

-------------------------
----------------

-----------------------7-
---7---7---5----

-(0)-----7-----5-------7-
---7---7---5--0-

-(0)---------------------
--------------0-

-(0)-0-0---0-0---0-0-0---
--------------0-



      PM
   PM
   PM--

  +E  S S E S S E S S E E   +E   E E E E E E E

-------------------------
--------------------

-------------------------
--------------------

-------------------------
--------------------

-(0)---------------------
--------5-7-------0-

-(0)-----8-----7---------
------------8-7-5-0-

-(0)-0-0---0-0---0-0-0-8-
-(8)-10-----------0-



     PM
   PM
   PM--

 +E  S S E S S E S S E E   +E   E E E E E E E

-------------------------
--------------------

-------------------------
--------------------

-------------------------
----------5---------

-(0)-----7-----5---------
------------7-5---0-

-(0)-------------------5-
-(5)--7-7-------5-0-

-(0)-0-0---0-0---0-0-0---
------------------0-



      PM
   PM
   PM--

  +E  S S E S S E S S E E   +E  E  E Q   E E E

-------------------------
--------------------

-------------------------
--------------------

-------------------------
--------------------

-(0)---------------------
----------7-------0-

-(0)-----8-----7-------7-
-(7)-8-10----10-8-0-

-(0)-0-0---0-0---0-0-0---
------------------0-



     PM
   PM
   PM--

 +E  S S E S S E S S E E   +E  E  E Q   E E E

-------------------------
--------------------

-------------------------
--------------------

-------------------------
----------5---------

-(0)-----7-----5-------5-
-(5)-7--8-----7-5-0-

-(0)---------------------
------------------0-

-(0)-0-0---0-0---0-0-0---
------------------0-



      PM
   PM
   PM--

  +E  S S E S S E S S E E   +E   E E E E E E E

-------------------------
--------------------

-------------------------
--------------------

-------------------------
--------------------

-(0)---------------------
--------5-7-------0-

-(0)-----8-----7---------
------------8-7---0-

-(0)-0-0---0-0---0-0-0-8-
-(8)-10---------8-0-



     PM
   PM
   PM--

 +E  S S E S S E S S E E   +E   E E E E E E E

-------------------------
--------------------

-------------------------
--------------------

-------------------------
----------5---------

-(0)-----7-----5---------
------------7-5---0-

-(0)-------------------5-
-(5)--7-7-------5-0-

-(0)-0-0---0-0---0-0-0---
------------------0-



      PM
   PM
   PM--

  +E  S S E S S E S S E E   E E E E E Q  E

-------------------------
----------------

-------------------------
----------------

-------------------------
----------------

-(0)-------------------3-
---2---2---0--0-

-(0)-----8-----7-------5-
---3---3---1--0-

-(0)-0-0---0-0---0-0-0---
--------------0-



     PM
   PM
   PM--

 +E  S S E S S E S S E E   E E E E E Q  E

-------------------------
----------------

-------------------------
----------------

-----------------------7-
---5---5---3----

-(0)-----7-----5-------7-
---5---5---3--0-

-(0)---------------------
--------------0-

-(0)-0-0---0-0---0-0-0---
--------------0-



      PM  PM  PM

  +E  E E E E E E E   +E   E E E E E E E

-------------------
--------------------

-------------------
--------------------

-------------------
--------------------

-(0)---------------
--------5-7-------0-

-(0)---8---7-------
------------8-7-5-0-

-(0)-0---0---0-0-8-
-(8)-10-----------0-



     PM  PM  PM

 +E  E E E E E E E   +E   E E E E E E E

-------------------
--------------------

-------------------
--------------------

-------------------
----------5---------

-(0)---7---5-------
------------7-5---0-

-(0)-------------5-
-(5)--7-7-------5-0-

-(0)-0---0---0-0---
------------------0-



      PM  PM  PM

  +E  E E E E E E E   +E  E  E Q   E E E

-------------------
--------------------

-------------------
--------------------

-------------------
--------------------

-(0)---------------
----------7-------0-

-(0)---8---7-----7-
-(7)-8-10----10-8-0-

-(0)-0---0---0-0---
------------------0-



     PM  PM  PM

 +E  E E E E E E E   +E  E  E Q   E E E

-------------------
--------------------

-------------------
--------------------

-------------------
----------5---------

-(0)---7---5-----5-
-(5)-7--8-----7-5-0-

-(0)---------------
------------------0-

-(0)-0---0---0-0---
------------------0-



      PM  PM  PM
                              PM  PM  PM

  +E  E E E E E E E   +E   E E E E E E E   +E  E E E E E E E   E E E E E Q  E

-------------------
--------------------
-------------------
----------------

-------------------
--------------------
-------------------
----------------

-------------------
--------------------
-------------------
----------------

-(0)---------------
--------5-7-------0-
-(0)-------------3-
---3---3---2----

-(0)---8---7-------
------------8-7-5-0-
-(0)---8---7-----5-
---5---5---3----

-(0)-0---0---0-0-8-
-(8)-10-----------0-
-(0)-0---0---0-0---
--------------8-



     PM  PM  PM
                              PM  PM  PM

 +E  E E E E E E E   +E   E E E E E E E   +E  E E E E E E E   E E E E E Q  E

-------------------
--------------------
-------------------
----------------

-------------------
--------------------
-------------------
----------------

-------------------
----------5---------
-----------------7-
---7---7---5----

-(0)---7---5-------
------------7-5---0-
-(0)---7---5-----7-
---7---7---5----

-(0)-------------5-
-(5)--7-7-------5-0-
-(0)---------------
--------------5-

-(0)-0---0---0-0---
------------------0-
-(0)-0---0---0-0---
----------------



   Pre-Chorus
        PM
    PM
    PM
    PM
     PM
    PM
    PM
    PM---
    +E  S S  E S S  E S S  E S S   E S S  E S S  E S S  E S S

-------------------------------
----------------------------


o------------------------------
----------------------------


-------------------------------
----------------------------


----------10-------------------
-------10-------------------


o-----8-8----8-8-10-8-8-12-8-8-
---8-8----8-8-10-8-8-12-8-8-


--(8)-8-8----8-8----8-8----8-8-
-8-8-8----8-8----8-8----8-8-



       PM
    PM
    PM
    PM
     PM
    PM
    PM
    PM---

   +E  S S  E S S  E S S  E S S   E S S  E S S  E S S  E S S

-------------------------------
----------------------------


o------------------------------
----------------------------


----------10-------------------
-------10-------------------


------------------8-----10-----
---------------8-----10-----


o-(5)-8-8----8-8----8-8----8-8-
-5-8-8----8-8----8-8----8-8-


------8-8----8-8----8-8----8-8-
---8-8----8-8----8-8----8-8-



 -------------------------------

  S S S S S S S S S S S S S S S S   E E E E E Q  E     3x

---------------------------------
--------------------


---------------------------------
-------------------o


---------------------------------
--------------------


---------------------------------
-2-2---2---3--------


-0---0-0-0---0-0-0---0-0-0---0-0-
-3-3---3---5-------o


-0---0-0-0---0-0-0---0-0-0---0-0-
--------------8-----



-------------------------------

 S S S S S S S S S S S S S S S S   E E E E E Q  E     3x

---------------------------------
--------------------


---------------------------------
-------------------o


---------------------------------
-5-5---5---7--------


---------------------------------
-5-5---5---7--------


-0---0-0-0---0-0-0---0-0-0---0-0-
--------------5----o


-0---0-0-0---0-0-0---0-0-0---0-0-
--------------------



      PM
    PM
    PM
    PM
     PM
    PM
    PM
    PM---
  +E  S S  E S S  E S S  E S S   E S S  E S S  E S S  E S S

------------------------------
----------------------------

------------------------------
----------------------------

------------------------------
----------------------------

---------10-------------------
-------10-------------------

-----8-8----8-8-10-8-8-12-8-8-
---8-8----8-8-10-8-8-12-8-8-

-(8)-8-8----8-8----8-8----8-8-
-8-8-8----8-8----8-8----8-8-



     PM
    PM
    PM
    PM
     PM
    PM
    PM
    PM---

 +E  S S  E S S  E S S  E S S   E S S  E S S  E S S  E S S

------------------------------
----------------------------

------------------------------
----------------------------

---------10-------------------
-------10-------------------

-----------------8-----10-----
---------------8-----10-----

-(5)-8-8----8-8----8-8----8-8-
-5-8-8----8-8----8-8----8-8-

-----8-8----8-8----8-8----8-8-
---8-8----8-8----8-8----8-8-



 -------------------------------

  S S S S S S S S S S S S S S S S   E E E E E Q.     +H..       E

---------------------------------
----------------
-----------------

---------------------------------
----------------
-----------------

---------------------------------
----------------
-----------------

---------------------------------
-2-2---2---3----
-(3)-------------

-0---0-0-0---0-0-0---0-0-0---0-0-
-3-3---3---5----
-(5)-------------

-0---0-0-0---0-0-0---0-0-0---0-0-
----------------
-----------------



                                                               Gtr III

-------------------------------

 S S S S S S S S S S S S S S S S   E E E E E Q.     +H..       E

---------------------------------
----------------
-----------------

---------------------------------
----------------
-----------------

---------------------------------
-5-5---5---7----
-(7)-------------

---------------------------------
-5-5---5---7----
-(7)--------8----

-0---0-0-0---0-0-0---0-0-0---0-0-
----------------
------------8----

-0---0-0-0---0-0-0---0-0-0---0-0-
----------------
------------8----



 Guitar Solo
  Gtr I
   E  E E E Q.     E   +E  E E E  E  E  E E

--------------------
----------------------

--------------------
---------6--5---------

---------5--------7-
-(7)-5---------5------

-------3---5--------
-------7----------7-5-

-----x--------------
----------------------

-----x--------------
----------------------



 Gtr III

 +E  E Q   E  E Q      E  E Q    E  E  E E

--------------------
----------------------

--------------------
----------------------

--------------------
----------------------

-(8)-8-8---8--8-8---
--8--8-8---10-10-10-0-

-(8)-8-8---8--8-8---
--8--8-8---10-10-10-0-

-(8)-8-8---8--8-8---
--8--8-8---10-10-10-0-



                          PM    PM
  +E  S S E E E E E  E    E  E  E E E E E  E

----------------------
----------------------

-------------------10-
-----8----6h8p6-------

---------5---7-5------
----------------7-----

-(5)-5h7---7-----7----
-10----10---------10--

----------------------
----------------------

----------------------
----------------------



 +E  E   Q   E E E  E   +E  E  Q   E E E  E

----------------------
----------------------

----------------------
----------------------

----------------------
----------------------

-(0)-0---0---0-0-0--3-
-(3)-3--3---5-5-5--8--

-(0)-0---0---0-0-0--3-
-(3)-3--3---5-5-5--8--

-(0)-0---0---0-0-0--3-
-(3)-3--3---5-5-5--8--



   +E   E E  E E  E E  E    E  E  E  E  E  E  E  E

------------------------
-------------------------

------------------------
-------------------------

------------------------
-12----10-----9-10--9----

-(10)-12-0-15-0-14-0-10-
----10----10----------10-

------------------------
-------------------------

------------------------
-------------------------



  +E   E Q    E  E Q       E  E  Q     E  E  E  E

------------------------
-------------------------

------------------------
-------------------------

------------------------
-------------------------

--(8)--8-8----8--8-8----
--8--8--8----10-10-10--0-

--(8)--8-8----8--8-8----
--8--8--8----10-10-10--0-

--(8)--8-8----8--8-8----
--8--8--8----10-10-10--0-



   E    E  E E  E  E  E  E     E   E E  E  H

--------------------------
-----------------------

-10--/11----8----10-------
---------8h10----------

-----------------------10-
-/12----------10-------

---------10---10----10----
------10---------------

--------------------------
-----------------------

--------------------------
-----------------------



 +E    E  Q    E  E  E  E    +E   E Q     E E E E

--------------------------
-----------------------

--------------------------
-----------------------

--------------------------
-----------------------

-(0)---0--0----0--0--0--3-
--(3)--3-3-----5-5-5-8-

-(0)---0--0----0--0--0--3-
--(3)--3-3-----5-5-5-8-

-(0)---0--0----0--0--0--3-
--(3)--3-3-----5-5-5-8-



   T     T    T    T    T    T    T    T
   S  S  S S  S S  S S  S S  S S  S S  S S

------------------------------------------

-15--6-13-6-15-6-13-6-15-6-13-6-13-6-13-6-

------------------------------------------

------------------------------------------

------------------------------------------

------------------------------------------



 +E     E    Q         E    E    Q

------------------------------------------

------------------------------------------

------------------------------------------

-(8)----8----8---------8----8----8--------

-(8)----8----8---------8----8----8--------

-(8)----8----8---------8----8----8--------



       T        T    T         T
  S S  S S S S  S S  S S  S S  S S S   S

----------------------------------------

-8p6-10-6h8p6-11-6-10-6h=8p6-11-6h8-/10-

----------------------------------------

----------------------------------------

----------------------------------------

----------------------------------------



 E    E   Q         E    E    E   E

----------------------------------------

----------------------------------------

----------------------------------------

-8----8---8--------10---10---10---0-----

-8----8---8--------10---10---10---0-----

-8----8---8--------10---10---10---0-----



   ~~~
                                 
-3--

   H        E  E  E  E    +E   E E  E E   Q    E  E

----------------------
----------------------------

-10-------10----------
-------------------------10-

-------------12-10-12-
-(12)-10-9h10p9-------10----

----------------------
----------------/12---------

----------------------
----------------------------

----------------------
----------------------------



 +E  E Q   E  E  E  E    +E   E Q        E E  E  E

----------------------
----------------------------

----------------------
----------------------------

----------------------
----------------------------

-(0)-0-0---0--0--0--3-
--(3)--3-3--------5-5--5--8-

-(0)-0-0---0--0--0--3-
--(3)--3-3--------5-5--5--8-

-(0)-0-0---0--0--0--3-
--(3)--3-3--------5-5--5--8-



                                ~~~~
   +E   E  E  E  E  E  E  E    +E   E  E  Q        E  E  E

---------------------------
-------------------------------

-(10)-11----10-13-10----10-
-(10)----10-11b13----10----10--

---------12----------12----
------12----------------12-----

---------------------------
-------------------------------

---------------------------
-------------------------------

---------------------------
-------------------------------



  +E   E  Q     E  E  Q        E   E  Q        E  E  E  E

---------------------------
-------------------------------

---------------------------
-------------------------------

---------------------------
-------------------------------

--(8)--8--8-----8--8--8----
---8---8--8-------10-10-10--0--

--(8)--8--8-----8--8--8----
---8---8--8-------10-10-10--0--

--(8)--8--8-----8--8--8----
---8---8--8-------10-10-10--0--



   
---3----
 
-3--
 
--3--

   E   E    E E  E E E E   E E E    Q     E  H        +E

--------------------------------
------------------------

--------------------------------
------------------------

-12--14---12-9-10-9-7-9---7-5-7-
-/9----10---------------

--------------------------------
----------12-------(12)-

--------------------------------
------------------------

--------------------------------
------------------------



 +E     E    Q      E   E   E E   +E  E  Q    E E E   E

--------------------------------
------------------------

--------------------------------
------------------------

--------------------------------
------------------------

-(0)----0----0------0---0---0-3-
-(3)-3--3----5-5-5---8--

-(0)----0----0------0---0---0-3-
-(3)-3--3----5-5-5---8--

-(0)----0----0------0---0---0-3-
-(3)-3--3----5-5-5---8--



   E  E Q.    E  E E   +Q       +Q     E  E  Q

--------------------
----------------------------

--------------------
----------------------------

-------5----------9-
-(9)b10r==(9)---------10----

--5--7-------7-10---
----------------10-12-------

--------------------
----------------------------

--------------------
----------------------------



 +E  E E  Q  E  E E   +E     E  E  E  E  E  E E

--------------------
----------------------------

--------------------
----------------------------

--------------------
----------------------------

-(8)-8-8-----8----8-
-(8)----8--8----10-10-10-0--

-(8)-8-8-----8----8-
-(8)----8--8----10-10-10-0--

-(8)-8-8-----8----8-
-(8)----8--8----10-10-10-0--



                                          
---3---

   E   E  Q.     E  E  E    +E   E  E  E  E  E    E  E  E

------------------------
--------------------------------

------------------------
--------------------------------

--------12-----------14-
-(14)-17-15-14-14-15---14-12----

-12--14--------14-15----
-----------------------------15-

------------------------
--------------------------------

------------------------
--------------------------------



 +E   E  E  Q   E  E  E    +E   E  E  Q       E     E  E

------------------------
--------------------------------

------------------------
--------------------------------

------------------------
--------------------------------

-(0)--0--0------0-----3-
--(3)--3--3--5-------5-----5--8-

-(0)--0--0------0-----3-
--(3)--3--3--5-------5-----5--8-

-(0)--0--0------0-----3-
--(3)--3--3--5-------5-----5--8-



   E   E  E  E  E  E  E  E    E   E E  E  E  E  E  E

--------------------------
-------------------------

--------------------------
-------------------------

-----15-17----14-12-------
-----10-9--------9-10-12-

-15--------15-------15-14-
-12-------10-------------

--------------------------
-------------12----------

--------------------------
-------------------------



 +E   E  E  Q     E  E  E   +E   E E  E  E  E  E  E

--------------------------
-------------------------

--------------------------
-------------------------

--------------------------
-------------------------

-(8)--8--8--------8-----8-
-(8)--8-8----10-10-10--0-

-(8)--8--8--------8-----8-
-(8)--8-8----10-10-10--0-

-(8)--8--8--------8-----8-
-(8)--8-8----10-10-10--0-



       PM
      PM
      PM
                                  
--3---

   E   E  E  E  E  E  E  E    E   E E    E E  H

--------------------------
--------------------------

--------------------------
--------------------------

-14--------12-------10----
--9--12-9------9-10-------

-----12-12----12-12----12-
------------10------------

--------------------------
--------------------------

--------------------------
--------------------------



 +E   E  E  Q     E  E  E   +E   E   E    Q    E E E

--------------------------
--------------------------

--------------------------
--------------------------

--------------------------
--------------------------

-(0)--0--0--------0-----3-
-(3)--3---3----5----5-5-8-

-(0)--0--0--------0-----3-
-(3)--3---3----5----5-5-8-

-(0)--0--0--------0-----3-
-(3)--3---3----5----5-5-8-



   S  S S S  S S S S  S S S S  S S S S   S S  S S S S  S S  S S  S S  S S S S

--------------------------------------
--------------------------------------

--------------------------------------
--------------------------------------

-12--7-9-7-12-7-9-7-12-7-9-7-14-7-9-7-
-9-7-15-7-9-7-17-7-17-7--9-7-15-7-9-7-

--------------------------------------
--------------------------------------

--------------------------------------
--------------------------------------

--------------------------------------
--------------------------------------



 +E    E    Q        E   E    Q         E    E   Q         E    E    E   E

--------------------------------------
--------------------------------------

--------------------------------------
--------------------------------------

--------------------------------------
--------------------------------------

-(8)---8----8--------8---8----8-------
-8----8---8--------10---10---10---0---

-(8)---8----8--------8---8----8-------
-8----8---8--------10---10---10---0---

-(8)---8----8--------8---8----8-------
-8----8---8--------10---10---10---0---



   S  S S S  S S S S  S S S S  S S S S    S  S  S S S S  S S  S S S S  S S S S

--------------------------------------
---------------------------------------

--------------------------------------
---------------------------------------

-19--7-9-7-19-7-9-7-19-7-9-7-17-7-9-7-
--9--7-15-7-9-7-14-7-14-7-9-7-15-7-9-7-

--------------------------------------
---------------------------------------

--------------------------------------
---------------------------------------

--------------------------------------
---------------------------------------



 +E    E    Q        E   E    E   E     +E     E   Q         E   E    E   E

--------------------------------------
---------------------------------------

--------------------------------------
---------------------------------------

--------------------------------------
---------------------------------------

-(0)---0----0--------0---0----0---3---
-(3)----3---3---------5---5----5---8---

-(0)---0----0--------0---0----0---3---
-(3)----3---3---------5---5----5---8---

-(0)---0----0--------0---0----0---3---
-(3)----3---3---------5---5----5---8---



   E   E  E  Q    E  E  E    +E   E  E  Q     E  E  E

----------------------10-
-(10)----------------------

-10--11----13---11-10----
------13-11-13----11-10-11-

--------12---------------
---------------------------

-------------------------
---------------------------

-------------------------
---------------------------

-------------------------
---------------------------



 Gtr II

  E   E  E  Q    E  E  E    +E   E  E  Q     E  E  E

-------------------------
---------------------------

----------------------11-
-(11)----------------------

-10--12----14---12-10----
------14-12-14----12-10-12-

--------14---------------
---------------------------

-------------------------
---------------------------

-------------------------
---------------------------



 Gtr III

 +E   E  Q    E  E  Q        E   E  Q     E  E  E  E

-------------------------
---------------------------

-------------------------
---------------------------

-------------------------
---------------------------

-(8)--8--8----8--8--8----
---8---8--8----10-10-10--0-

-(8)--8--8----8--8--8----
---8---8--8----10-10-10--0-

-(8)--8--8----8--8--8----
---8---8--8----10-10-10--0-



          
-3--
 
--3--

   +E   E E  E E E E   E E E   +E  E E  H       E

----------------------------
---------------------

-(11)-10-8-10-8-6-8---6-5-6-
-(6)-5---------------

----------------------------
-------5-------------

----------------------------
---------\5----------

----------------------------
---------\3----------

----------------------------
---------------------



         
-3--
 
--3--

  +E   E E  E E E E   E E E   +E  E E  H       E

----------------------------
---------------------

----------------------------
---------------------

-(12)-10-9-10-9-7-9---7-5-7-
-(7)-5---------------

----------------------------
-------7-\5----------

----------------------------
---------\3----------

----------------------------
---------------------



  +E   E Q      E   E   E E   +E  E Q    E E E E

----------------------------
---------------------

----------------------------
---------------------

----------------------------
---------------------

--(0)--0-0------0---0---0-3-
-(3)-3-3----5-5-5-0--

--(0)--0-0------0---0---0-3-
-(3)-3-3----5-5-5-0--

--(0)--0-0------0---0---0-3-
-(3)-3-3----5-5-5-0--



 Final Chorus
  Gtr I
   W                         H..              E

--------------------------
--------------------

--------------------------
--------------------

--------------------------
--------------------

--------------------------
------------------5-

--------------------------
--------------------

--------------------------
--------------------



 Gtr III

     PM-----------------
          PM------

 +E  E S S S S S S S Q  S   H      S S S S E E

--------------------------
--------------------

--------------------------
--------------------

--------------------------
--------------------

-(0)----------------------
------------------3-

-(0)---0-0-0---0-0-0------
--------0-0-0---0-3-

-(0)-0-0-0-0---0-0-0------
--------0-0-0---0-3-



                                    PM   PM
  +E  S S E   E   E   E   E  E      E E  E E E   E   Q

--------------------------------
------------------------

---------------------------10---
----8----6h8p==6--------

---------5-------7---5----------
-------------------7----

-(5)-5h7-----7-----------7------
-10---10----------------

--------------------------------
------------------------

--------------------------------
------------------------



     PM-----------------------
             PM------

 +E  E   S S S S S S S Q      S    H        S S S S E E

--------------------------------
------------------------

--------------------------------
------------------------

--------------------------------
------------------------

-(3)----------------------------
---------------------0--

-(3)-----3-3-3---3-3-3----------
-----------3-3-3---3-0--

-(3)-3---3-3-3---3-3-3----------
-----------3-3-3---3-0--



  +E  E E   E   Q.       E     +E  E E E E   E   E E

----------------------------
-----------------------

----------------------------
---------6-5-----------

-(7)-------5------------7---
-(7)-5---------5-------

-------3-------5------------
-------7-----------7-5-

-----x----------------------
-----------------------

-----x----------------------
-----------------------



     PM-------------------
             PM------

 +E  E S S S S S  S S Q   S    H        S S S S E E

----------------------------
-----------------------

----------------------------
-----------------------

----------------------------
-----------------------

-(0)------------------------
---------------------8-

-(0)---0-0-0---0--0-0-------
-----------0-0-0---0-8-

-(0)-0-0-0-0---0--0-0-------
-----------0-0-0---0-8-



                                   PM     PM
  +E  S S E   E   E   E   E  E     E   E  E     E    E       +E    +Q

------------------------------
---------------------8b10----(8)---(8)---

---------------------------10-
-------8--------6------------------------

---------5-------7---5--------
-----------------------------------------

-(5)-5h7-----7-----------7----
--10-----10------------------------------

------------------------------
-----------------------------------------

------------------------------
-----------------------------------------



     PM--------------
      PM        PM--------------------
         PM

 +E  E   S S S S S S S S E  E    +E   E  S  S  S S  S     S  S  S  E  E

------------------------------
-----------------------------------------

------------------------------
-----------------------------------------

------------------------------
-----------------------------------------

-(8)-----------------------10-
-(10)----------------------------------0-

-(8)-----8-8-8---8-8-8---8-10-
-(10)----10-10-10---10----10-10----10--0-

-(8)-8---8-8-8---8-8-8---8-10-
-(10)-10-10-10-10---10----10-10----10--0-



   E  E E   E   Q.       E     +E  E E E E   E   E E

----------------------------
-----------------------

----------------------------
---------6-5-----------

-----------5------------7---
-(7)-5---------5-------

-------3-------5------------
-------7-----------7-5-

-----x----------------------
-----------------------

-----x----------------------
-----------------------



     PM-------------------
             PM------

 +E  E S S S S S  S S Q   S    H        S S S S E E

----------------------------
-----------------------

----------------------------
-----------------------

----------------------------
-----------------------

-(0)------------------------
---------------------3-

-(0)---0-0-0---0--0-0-------
-----------0-0-0---0-3-

-(0)-0-0-0-0---0--0-0-------
-----------0-0-0---0-3-



                                    PM   PM
  +E  S S E   E   E   E   E  E      E E  E E E   E   Q

--------------------------------
------------------------

---------------------------10---
----8----6h8p==6--------

---------5-------7---5----------
-------------------7----

-(5)-5h7-----7-----------7------
-10---10----------------

--------------------------------
------------------------

--------------------------------
------------------------



     PM-----------------------
             PM------

 +E  E   S S S S S S S Q      S    H        S S S S E E

--------------------------------
------------------------

--------------------------------
------------------------

--------------------------------
------------------------

-(3)----------------------------
---------------------0--

-(3)-----3-3-3---3-3-3----------
-----------3-3-3---3-0--

-(3)-3---3-3-3---3-3-3----------
-----------3-3-3---3-0--



  +E  E E   E   Q.       E     +E  E E E E   E   E E

----------------------------
-----------------------

----------------------------
---------6-5-----------

-(7)-------5------------7---
-(7)-5---------5-------

-------3-------5------------
-------7-----------7-5-

-----x----------------------
-----------------------

-----x----------------------
-----------------------



     PM-------------------
             PM------

 +E  E S S S S S  S S Q   S    H        S S S S E E

----------------------------
-----------------------

----------------------------
-----------------------

----------------------------
-----------------------

-(0)------------------------
---------------------8-

-(0)---0-0-0---0--0-0-------
-----------0-0-0---0-8-

-(0)-0-0-0-0---0--0-0-------
-----------0-0-0---0-8-



                                   PM     PM
  +E  S S E   E   E   E   E  E     E   E  E     E    E       +E    +Q

------------------------------
---------------------8b10----(8)---(8)---

---------------------------10-
-------8--------6------------------------

---------5-------7---5--------
-----------------------------------------

-(5)-5h7-----7-----------7----
--10-----10------------------------------

------------------------------
-----------------------------------------

------------------------------
-----------------------------------------



     PM--------------
      PM        PM--------------------
         PM

 +E  E   S S S S S S S S E  E    +E   E  S  S  S S  S     S  S  S  E  E

------------------------------
-----------------------------------------

------------------------------
-----------------------------------------

------------------------------
-----------------------------------------

-(8)-----------------------10-
-(10)----------------------------------0-

-(8)-----8-8-8---8-8-8---8-10-
-(10)----10-10-10---10----10-10----10--0-

-(8)-8---8-8-8---8-8-8---8-10-
-(10)-10-10-10-10---10----10-10----10--0-



  Gtr I
   E  E E E  Q.      E    +E  E  E  E E E  E E

----------------------
-----------------------

----------------------
------------6-5--------

---------5----------7-
--(7)-5---------5------

-------3----5---------
---------7---------7-5-

-----x----------------
-----------------------

-----x----------------
-----------------------



 Gtr II

  E  E E E  Q.      E    +E  E  E  E E E  E E

----------------------
-----------------------

----------------------
-----------10-8--------

---------9---------10-
-(10)-9---------9------

-------7---10---------
--------10--------10-8-

-----x----------------
-----------------------

-----x----------------
-----------------------



 Gtr III

 +E  E Q    E  E E  E    +E  E  Q    E E  E E

----------------------
-----------------------

----------------------
-----------------------

----------------------
-----------------------

-(0)-0-0----0--0-0--0-
--(0)-0--0----0-2----3-

-(0)-0-0----0--0-0--0-
--(0)-0--0----0-3----3-

-(0)-0-0----0--0-0--0-
--(0)-0--0----0-2----3-



                              PM    PM
  +E  S  S E  E  E E  E  E    E  E  E E  E  E  Q

--------------------------
------------------------

-----------------------10-
-----8----6h=8p=6-------

----------5-----7-5-------
-------------------7----

-(5)-5h=7----7-------7----
-10----10---------------

--------------------------
------------------------

--------------------------
------------------------



                             PM    PM

 +E  S  S E  E  E E  E  E    E  E  E E  E  E  Q

--------------------------
------------------------

--------------------------
------------------------

----------9----10-9----10-
-----9----7h=9p=7-------

-(8)-8h10---10------10----
-10----10----------7----

--------------------------
------------------------

--------------------------
------------------------



 +E  E    Q     E E  E  E   +E  E  Q    E  E  E E

--------------------------
------------------------

--------------------------
------------------------

--------------------------
------------------------

-(3)-3----3-----3-3--3--8-
-(8)-8--8---10-10-10-0--

-(3)-3----3-----3-3--3--8-
-(8)-8--8---10-10-10-0--

-(3)-3----3-----3-3--3--8-
-(8)-8--8---10-10-10-0--



  +E  E E E  Q.      E    +E  E  E  E E E  E E

----------------------
-----------------------

----------------------
------------6-5--------

-(7)-----5----------7-
--(7)-5---------5------

-------3----5---------
---------7---------7-5-

-----x----------------
-----------------------

-----x----------------
-----------------------



 +E  E E E  Q.      E    +E  E  E  E E E  E E

----------------------
-----------------------

----------------------
-----------10-8--------

---------9---------10-
-(10)-9---------9------

-(7)---7---10---------
--------10--------10-8-

-----x----------------
-----------------------

-----x----------------
-----------------------



 +E  E Q    E  E E  E    +E  E  Q    E E  E E

----------------------
-----------------------

----------------------
-----------------------

----------------------
-----------------------

-(0)-0-0----0--0-0--0-
--(0)-0--0----0-2----3-

-(0)-0-0----0--0-0--0-
--(0)-0--0----0-3----3-

-(0)-0-0----0--0-0--0-
--(0)-0--0----0-2----3-



                              PM    PM
  +E  S  S E  E  E E  E  E    E  E  E E  E    +E  +Q

--------------------------
-------------8b10-(8)-(8)----

-----------------------10-
-----8----6------------------

----------5-----7-5-------
-----------------------------

-(5)-5h=7----7-------7----
-10----10--------------------

--------------------------
-----------------------------

--------------------------
-----------------------------



                             PM    PM

 +E  S  S E  E  E E  E  E    E  E  E E  E    +E  +Q

--------------------------
-----------------------------

--------------------------
-----------------------------

----------9----10-9----10-
-----9----7--9b10-(9)-(9)----

-(8)-8h10---10------10----
-10----10--------------------

--------------------------
-----------------------------

--------------------------
-----------------------------



 +E  E    Q     E E  E  E   +E  E  Q    E     E   E  E

--------------------------
-----------------------------

--------------------------
-----------------------------

--------------------------
-----------------------------

-(3)-3----3-----3-3--3--8-
-(8)-8--8---10----10--10--0--

-(3)-3----3-----3-3--3--8-
-(8)-8--8---10----10--10--0--

-(3)-3----3-----3-3--3--8-
-(8)-8--8---10----10--10--0--



   E  E E E  Q.      E    +E  E  E  E E E  E E

----------------------
-----------------------

----------------------
------------6-5--------

---------5----------7-
--(7)-5---------5------

-------3----5---------
---------7---------7-5-

-----x----------------
-----------------------

-----x----------------
-----------------------



  E  E E E  Q.      E    +E  E  E  E E E  E E

----------------------
-----------------------

----------------------
-----------10-8--------

---------9---------10-
-(10)-9---------9------

-------7---10---------
--------10--------10-8-

-----x----------------
-----------------------

-----x----------------
-----------------------



 +E  E Q    E  E E  E    +E  E  Q    E E  E E

----------------------
-----------------------

----------------------
-----------------------

----------------------
-----------------------

-(0)-0-0----0--0-0--0-
--(0)-0--0----0-2----3-

-(0)-0-0----0--0-0--0-
--(0)-0--0----0-3----3-

-(0)-0-0----0--0-0--0-
--(0)-0--0----0-2----3-



                              PM    PM
  +E  S  S E  E  E E  E  E    E  E  E E  E  E  Q

--------------------------
------------------------

-----------------------10-
-----8----6h=8p=6-------

----------5-----7-5-------
-------------------7----

-(5)-5h=7----7-------7----
-10----10---------------

--------------------------
------------------------

--------------------------
------------------------



                             PM    PM

 +E  S  S E  E  E E  E  E    E  E  E E  E  E  Q

--------------------------
------------------------

--------------------------
------------------------

----------9----10-9----10-
-----9----7h=9p=7-------

-(8)-8h10---10------10----
-10----10----------7----

--------------------------
------------------------

--------------------------
------------------------



 +E  E    Q     E E  E  E   +E  E  Q    E  E  E E

--------------------------
------------------------

--------------------------
------------------------

--------------------------
------------------------

-(3)-3----3-----3-3--3--8-
-(8)-8--8---10-10-10-0--

-(3)-3----3-----3-3--3--8-
-(8)-8--8---10-10-10-0--

-(3)-3----3-----3-3--3--8-
-(8)-8--8---10-10-10-0--



  +E  E E E  Q.      E    +E  E  E  E E E  E E

----------------------
-----------------------

----------------------
------------6-5--------

-(7)-----5----------7-
--(7)-5---------5------

-------3----5---------
---------7---------7-5-

-----x----------------
-----------------------

-----x----------------
-----------------------



 +E  E E E  Q.      E    +E  E  E  E E E  E E

----------------------
-----------------------

----------------------
-----------10-8--------

---------9---------10-
-(10)-9---------9------

-(7)---7---10---------
--------10--------10-8-

-----x----------------
-----------------------

-----x----------------
-----------------------



 +E  E Q    E  E E  E    +E  E  Q    E E  E E

----------------------
-----------------------

----------------------
-----------------------

----------------------
-----------------------

-(0)-0-0----0--0-0--0-
--(0)-0--0----0-2----3-

-(0)-0-0----0--0-0--0-
--(0)-0--0----0-3----3-

-(0)-0-0----0--0-0--0-
--(0)-0--0----0-2----3-



                              PM   PM
  +E  S  S E  E  E E  E  E    E E  E E E    +E  +Q

--------------------------
--------------------------

-----------------------10-
----8----6-8b10-(8)-(8)---

----------5-----7-5-------
--------------------------

-(5)-5h=7----7-------7----
-10---10------------------

--------------------------
--------------------------

--------------------------
--------------------------



                             PM   PM

 +E  S  S E  E  E E  E  E    E E  E E E    +E  +Q

--------------------------
--------------------------

--------------------------
--------------------------

----------9----10-9----10-
----9----7-9b10-(9)-(9)---

-(8)-8h10---10------10----
-10---10------------------

--------------------------
--------------------------

--------------------------
--------------------------



 +E  E    Q     E E  E  E    E E  E E H

--------------------------
--------------------------

--------------------------
--------------------------

--------------------------
--------------------------

-(3)-3----3-----3-3--3--8-
----8----8-0--------------

-(3)-3----3-----3-3--3--8-
----8----8-0--------------

-(3)-3----3-----3-3--3--8-
----8----8-0--------------



   >
  +W           +W           +W           +W

------------
------------
------------
--------*

-(8)--------
-(8)--------
-(8)--------
-(8)----*

------------
------------
------------
--------*

------------
------------
------------
--------*

------------
------------
------------
--------*

------------
------------
------------
--------*



  >

 +W           +W           +W           +W

------------
------------
------------
--------*

------------
------------
------------
--------*

-(9)--------
-(9)--------
-(9)--------
-(9)----*

------------
------------
------------
--------*

------------
------------
------------
--------*

------------
------------
------------
--------*



  >

 +W           +W           +W           +W

------------
------------
------------
--------*

------------
------------
------------
--------*

------------
------------
------------
--------*

-(0)--------
-(0)--------
-(0)--------
-(0)----*

-(0)--------
-(0)--------
-(0)--------
-(0)----*

-(0)--------
-(0)--------
-(0)--------
-(0)----*




Duration Legend
---------------
W - whole; H - half; Q - quarter; E - 8th; S - 16th; T - 32nd; X - 64th; a - acciaccatura
+ - note tied to previous; . - note dotted; .. - note double dotted
Uncapitalized letters represent notes that are staccato (1/2 duration)
Irregular groupings are notated above the duration line
Duration letters will always appear directly above the note/fret number it represents the
duration for.  Duration letters with no fret number below them represent rests.  Multi-
bar rests are notated in the form Wxn, where n is the number of bars to rest for.  Low
melody durations appear below the staff

Tablature Legend
----------------
 h   - hammer-on
 p   - pull-off
 b   - bend
 pb  - pre-bend
 r   - bend release (if no number after the r, then release immediately)
 /\  - slide into or out of (from/to "nowhere")
 s   - legato slide
 S   - shift slide
 - natural harmonic
[n]  - artificial harmonic
n(n) - tapped harmonic
 ~   - vibrato
 tr  - trill
 T   - tap
 TP  - trem. picking
 PM  - palm muting
\n/  - tremolo bar dip; n = amount to dip
 \n  - tremolo bar down
 n/  - tremolo bar up
/n\  - tremolo bar inverted dip
 =   - hold bend; also acts as connecting device for hammers/pulls
 <> - volume swell (louder/softer)
 x   - on rhythm slash represents muted slash
 o   - on rhythm slash represents single note slash

Misc Legend
-----------
 
  - bar

  - double bar

o - repeat start
o
 - repeat end
*
  - double bar (ending)
 :  - bar (freetime)
 $  - Segno
 &  - Coda
Tempo markers -  = BPM(8/16=s8/s16), where s8 = swing 8ths, s16 = swing 16ths


 


/
How To Set Up Higher Praise As Your Home Page
Copyright 1999, Higher Praise HigherPraise,Inc. All rights reserved. Terms of Use

Enjoy A Life Changing Experience

 
 
 
HigherPraise, Higher Praise, HigherPraise, Higher Praise, HigherPraise

Members..Sign Up. LogIn

 
 

Higher Praise Other Sites
 
 

HigherPraise.org/
Praise And Worship
www.higherpraise.org

HigherPraise.net
Christian Resources
www.higherpraise.net

HigherPraiseTube.com
Videos And Audios
www.higherpraisetube.com.


ChristianLyrics.org

Lyrics And Chrords
www.christianlyrics.org

ChristianChordsLyrics

Lyrics And Chrords
www.christianchordslyrics.com

ChristianChordLyrics

Lyrics And Chrords
www.christianchordlyrics.com

WorshipLyrics.org
10.000 Illustrations
www.worshiplyrics.org

WorshipLyrics.net
10.000 Illustrations
www.worshiplyrics.net

PraiseLyrics.com
PowerPoint Lyrics

www.praiselyrics.com

PraiseLyrics.org
PowerPoint Lyrics

www.praiselyrics.org

1GodTube.com
Chistian Videos

www1godtube..com

OneGodTube.com
Chistian Videos

www.onegodtube..com

 

/
Copyright 1999 - 2019, Higher Praise™ HigherPraise™,Inc. All rights reserved. Terms of Use