Triptych Album Tabs by Demon Hunter

Higher Praise - Guitar Chords, Lyrics  GuitarTabs -  Praise nad Worship Music And Christian Songs

  Lyrics Guitar Chords Tabs
  Lyrics Chords Tabs By Title
  Lyrics Chords Tab By Artist
  
Popular Lyrics, Chords Tab   Power Point Lyrics
  Christmas Lyrics
  Praise & Worship Songs
  Audios, Praise & Worship
  Videos Praise & Worship
  Midis Praise & Worship
  Praise Worship Questions
  Videos Christian Songs
  Outlines & Illustrations
  9344 Sermon Outlines
  N.T. Sermon Outlines
  O.T. Sermon Outlines
  Special Guest Outlines
  10.000 Illustrations
  Free Bible College Studies
  Sunday School Studies
  Greatest Preachers Profiles
  400,000 Clipart & Graphics
  Church Resource Links
  Audio & Video Sermons
  2895 Audio Sermons
  291 Special Guest Sermons
  85 Sermon Videos
  Videos Of Great Preachers
  Complete Audio Bible
  Childrens Study & Movies
  Children's NT Lessons
  Children's OT Lessons

  98 Children's Midis
  Gospel For Kids Movie
  Children's JESUS Film
  Christian Children Videos

  TV - Movies & Videos
  Christian Television
  Passion Of The Christ
  Christian Movie Library
  Prophecy Movies & Videos
  712 Praise Worship Videos
  JESUS Film -Movie
  Childrens JESUS Movie
  Gospel For Kids Movie
  85 Sermon Videos
  Noah, Sodom, Sinai, Ark
  15,000 Videos - Songs Films
  Praise Videos #1 & #2
  Testimonies
  Tsunami Videos Photos
  TBN TV Live

  Download Songs Sermons
  Audio Praise & Worship
  Audio Sermons
  Clipart & Web Graphics
  Church Administration
  Bible Study Software
  Screen Savers Software
  Verse A Day Software
  Educational Games
  Trade Center Photos
  Christian Software Search
  Info. Clipart Preach Study
  Praise Worship Questions
  Free Bible College Course
  400,000 Clipart & Graphics
  10.000 Illustrations
  Greatest Preachers Profiles
  Complete Talking Bible
  Family Christian Chat

  Prayer For All Needs
  Our Statement Of Faith 
  News, Submit Your News
  Current News
  Archived News
  Submit News
  News Letter
/
  Interact, Prayer & Submit
  Prayer For All Needs
  
Submit Lyrics, Sermons
  
Contact Higher Praise
  
Advertising
  Privacy Policy
'
0-9 A B C D E F G H I J K L M N O P Q R S T U V W X Y Z
.

//
Click For Plain Text...Version Of This File
 

Triptych Album


by Demon Hunter

Share |



THESE TABS ARE NOT MINE!!! I HAVE PUT THEM IN A ALBUM TAB TO HELP YOU GUYS OUT THAT ARE
FOR THEM!!! ALL PEOPLE THAT TABED THESE SONGS WILL GET FULL 100% CREDIT FOR THERE TABS.
ALBUM ALSO HAS ALL 5 STAR SONGS SO IT IS PROBABLY ONE OF THE BEST TABS YOU WILL FIND ON 
INTERNET! ENJOY!!
----------------------------------------------------------------------------

This is the best filler for any song that i have ever heard. It just fuses with the song
with the attitude of Demon Hunter so well, its quite
ama-za-zing.I didnt tab this Adam K did. No credit for me.


Demon Hunter-The Flame That Guides Us Home
From: The Triptych
Drop B Tuning B-F#-B-E-G#-C#

About 20 seconds into the song they
start playing this.

C#[---------------------------------]
G#[-6-4-3-------3-4-3---------------]
E [-5-5-5-5-4-5-5-5-5-5-4-4-4-5-5-5-]
B [-------5-5-5-------5-5-5-5-5-5-5-]
F#[---------------------------------]
B [---------------------------------]

This song pretty much prelude to "Not I".



----------------------------------------------------------------------------

Artist: Demon Hunter
Song: Not I
Album: The Tryptich
Tuning:
Guitar 1: Don Clark : B-F#-B-E-G#-C#
Guitar 2: Ethan Luck: B-F#-B-E-G#-C#

h=hammer on
b=bend
p=pull off
/=slide up
\=slide down
palm mute=.

Intro
Both Guitars (0:00 - 0:04)
C#
-----------------------

G#
-----------------------

E 
-----------------------

B 
-6-4-3-1-0/1-3/4\3-1-0-

F#
-6-4-3-1-0/1-3/4\3-1-0-

B 
-6-4-3-1-0/1-3/4\3-1-0-


Bass (0:00-0:04)
E 
-----------------------

B 
-----------------------

F#
-----------------------

B 
-6-4-3-1-0/1-3/4\3-1-0-


Guitar 1 (0:04 - 0:15)

---------------------------------
-

---------------------------------
 

---------------------------------
 
- Repeat

-0/1-1-0/1-1-0/1-1-0/1-1-0/1/3---
 
-   x4

-0/1-1-0/1-1-0/1-1-0/1-1-0/1/3-1-
 

-0/1-1-0/1-1-0/1-1-0/1-1-0/1/3---
-


Guitar 2 (0:04 - 0:09)

---------------------------------
-

---------------------------------
 

---------------------------------
 
- Repeat

-------------------------0/1/3---
 
-   x2

-------------------------0/1/3-1-
 

-------------------------0/1/3---
-


Guitar 2 (0:09 - 0:12)

----------------

----------------

----------------

-0-0-0-0-0/1/3--

-0-0-0-0-0/1/3-1

-0-0-0-0-0/1/3--


Guitar 2 (0:12 - 0:15)

--------------------------------

--------------------------------

--------------------------------

0/1-1-0/1-1-0/1-1-0/1-1-0/1/3---

0/1-1-0/1-1-0/1-1-0/1-1-0/1/3-1-

0/1-1-0/1-1-0/1-1-0/1-1-0/1/3---


Bass (0:04 - 0:09)

---------------------------------
-

---------------------------------
 
- Repeat

-------------------------------1-
 
-   x2

-------------------------0/1/3---
-


Bass (0:09 - 0:12)

-----------------

-----------------

---------------1-

-0-0-0-0-0/1/3---


Bass (0:12 - 0:15)

--------------------------------

--------------------------------

------------------------------1-

0/1-1-0/1-1-0/1-1-0/1-1-0/1/3---


Pause (0:15 - 0:17)

Both Guitars (0:17 - 0:25)

---------------------------------
-

---------------------------------
 

---------------------------------
 
- Repeat

-0/1-1-0/1-1-0/1-1-0/1-1-0/1/3---
 
-   x3

-0/1-1-0/1-1-0/1-1-0/1-1-0/1/3-1-
 

-0/1-1-0/1-1-0/1-1-0/1-1-0/1/3---
-


Bass (0:17 - 0:25)

---------------------------------
-

---------------------------------
 
- Repeat

-------------------------------1-
 
-   x3

-0/1-1-0/1-1-0/1-1-0/1-1-0/1/3---
-


Both Guitars (0:25 - 0:28)

---------------------------------

---------------------------------

---------------------------------

-6\5-5-6\5-5-6\5-5-6\5-5-6\5-5/6-

-6\5-5-6\5-5-6\5-5-6\5-5-6\5-5/6-

-6\5-5-6\5-5-6\5-5-6\5-5-6\5-5/6-


Bass (0:25 - 0:28)

---------------------------------

---------------------------------

---------------------------------

-6\5-5-6\5-5-6\5-5-6\5-5-6\5-5/6-


Verse 1
Both Guitars (0:28 - 0:37)

---------------------------------
-

---------------------------------
 

---------------------------------
 
- Repeat

-0/1-1-0/1-1-0/1-1-0/1-1-0/1/3---
 
-   x3

-0/1-1-0/1-1-0/1-1-0/1-1-0/1/3-1-
 

-0/1-1-0/1-1-0/1-1-0/1-1-0/1/3---
-


Bass (0:28 - 0:37)

---------------------------------
-

---------------------------------
 
- Repeat

-------------------------------1-
 
-   x3

-0/1-1-0/1-1-0/1-1-0/1-1-0/1/3---
-


Both Guitars (0:37 - 0:40)

---------------------------------

---------------------------------

---------------------------------

-6\5-5-6\5-5-6\5-5-6\5-5-6\5-5/6-

-6\5-5-6\5-5-6\5-5-6\5-5-6\5-5/6-

-6\5-5-6\5-5-6\5-5-6\5-5-6\5-5/6-


Bass (0:37 - 0:40)

---------------------------------

---------------------------------

---------------------------------

-6\5-5-6\5-5-6\5-5-6\5-5-6\5-5/6-


Verse 2
Both Guitars (0:40 - 0:48)

---------------------------------
-

---------------------------------
 

---------------------------------
 
- Repeat

-0/1-1-0/1-1-0/1-1-0/1-1-0/1/3---
 
-   x3

-0/1-1-0/1-1-0/1-1-0/1-1-0/1/3-1-
 

-0/1-1-0/1-1-0/1-1-0/1-1-0/1/3---
-


Bass (0:40 - 0:48)

---------------------------------
-

---------------------------------
 
- Repeat

-------------------------------1-
 
-   x3

-0/1-1-0/1-1-0/1-1-0/1-1-0/1/3---
-


Both Guitars (0:48 - 0:51)

---------------------------------

---------------------------------

---------------------------------

-6\5-5-6\5-5-6\5-5-6\5-5-6\5-5/6-

-6\5-5-6\5-5-6\5-5-6\5-5-6\5-5/6-

-6\5-5-6\5-5-6\5-5-6\5-5-6\5-5/6-


Bass (0:48 - 0:51)

---------------------------------

---------------------------------

---------------------------------

-6\5-5-6\5-5-6\5-5-6\5-5-6\5-5/6-


Pre-Chorus
Guitar 1 (0:51 - 1:14)

-8-------8----------------------8------8---------------------
-

--8-8h9---8-8h9--9-----8---------8-8h9--8-8h9--9-----8-------
 

------------------10-8--10-8h10-----------------10-8---10-8b-
 
- Repeat

-------------------------------------------------------------
 
-   x2

-------------------------------------------------------------
 

-------------------------------------------------------------
-


Guitar 2 (0:51 - 1:14)

----------------------------------------------------
-

----------------------------------------------------
 

----------------------------------------------------
 
- Repeat

-33333-33333-66666-66666-1-33333-33333-66666-66666-1
 
-   x2

-33333-33333-66666-66666-1-33333-33333-66666-66666-1
 

-33333-33333-66666-66666-1-33333-33333-66666-66666-1
-


Bass (0:51 - 1:14)

----------------------------------------------------
-

----------------------------------------------------
 
- Repeat

----------------------------------------------------
 
-   x2

-33333-33333-66666-66666-1-33333-33333-66666-66666-1
-


Chorus
Both Guitars (1:14 - 1:25)

----------------------------------
-

----------------------------------
 

----------------------------------
 
- Repeat

-1-1\0----1-1\0----1-1\0----1-1\0-
 
-   x4

-1-1\0----1-1\0----1-1\0----1-1\0-
 

-1-1\0----1-1\0----1-1\0----1-1\0-
-


Bass (1:14 - 1:25)

----------------------------------
-

----------------------------------
 
- Repeat

----------------------------------
 
-   x4

-1-1\0----1-1\0----1-1\0----1-1\0-
-


Guitar 1 (1:25 - 1:35)

--------------------------
-

--------------------------
 

-0h5h7--------------------
 
- Repeat

-------8p7p0-0h5h6-6p5p0--
 
-   x4

--------------------------
 

--------------------------
-


Guitar 2 (1:25 - 1:35)

-----------------------------------------
-

-----------------------------------------
 

-----------------------------------------
 
- Repeat

-6-6-0--1-1\0----1-1\0----1-1\0----1-1\0-
 
-   x4

-6-6-0--1-1\0----1-1\0----1-1\0----1-1\0-
 

-6-6-0--1-1\0----1-1\0----1-1\0----1-1\0-
-


Bass (1:25 - 1:35)

-----------------------------------------
-

-----------------------------------------
 
- Repeat

-----------------------------------------
 
-   x4

-6-6-0--1-1\0----1-1\0----1-1\0----1-1\0-
-


Post-Chorus
Both Guitars (1:35 - 1:38)

---------------------------------

---------------------------------

---------------------------------

-6\5-5-6\5-5-6\5-5-6\5-5-6\5-5/6-

-6\5-5-6\5-5-6\5-5-6\5-5-6\5-5/6-

-6\5-5-6\5-5-6\5-5-6\5-5-6\5-5/6-


Bass (1:35 - 1:38)

---------------------------------

---------------------------------

---------------------------------

-6\5-5-6\5-5-6\5-5-6\5-5-6\5-5/6-


Verse 2
Pause.
Guitar 1 (1:38 - 1:40)

-------------------------

-------------------------

-------------------------

-------------------------

-------------------------

-0/1-1-0/1-1-0/1-1-0/1-1-


Guitar 1 (1:40: - 1:41)

---------

---------

---------

-0/1/3---

-0/1/3-1-

-0/1/3---


Both Guitars (1:41 - 1:47)

---------------------------------
-

---------------------------------
 

---------------------------------
 
- Repeat

-0/1-1-0/1-1-0/1-1-0/1-1-0/1/3---
 
-   x2

-0/1-1-0/1-1-0/1-1-0/1-1-0/1/3-1-
 

-0/1-1-0/1-1-0/1-1-0/1-1-0/1/3---
-


Bass (1:41 - 1:47)

---------------------------------
-

---------------------------------
 
- Repeat

-------------------------------1-
 
-   x2

-0/1-1-0/1-1-0/1-1-0/1-1-0/1/3---
-


Both Guitars (1:47 - 1:49)

---------------------------------

---------------------------------

---------------------------------

-6\5-5-6\5-5-6\5-5-6\5-5-6\5-5/6-

-6\5-5-6\5-5-6\5-5-6\5-5-6\5-5/6-

-6\5-5-6\5-5-6\5-5-6\5-5-6\5-5/6-


Bass (1:47 - 1:49)

---------------------------------

---------------------------------

---------------------------------

-6\5-5-6\5-5-6\5-5-6\5-5-6\5-5/6-


Both Guitars (1:49 - 1:58)

---------------------------------
-

---------------------------------
 

---------------------------------
 
- Repeat

-0/1-1-0/1-1-0/1-1-0/1-1-0/1/3---
 
-   x3

-0/1-1-0/1-1-0/1-1-0/1-1-0/1/3-1-
 

-0/1-1-0/1-1-0/1-1-0/1-1-0/1/3---
-


Bass (1:49 - 1:58)

---------------------------------
-

---------------------------------
 
- Repeat

-------------------------------1-
 
-   x3

-0/1-1-0/1-1-0/1-1-0/1-1-0/1/3---
-


Both Guitars (1:58 - 2:01)

---------------------------------

---------------------------------

---------------------------------

-6\5-5-6\5-5-6\5-5-6\5-5-6\5-5/6-

-6\5-5-6\5-5-6\5-5-6\5-5-6\5-5/6-

-6\5-5-6\5-5-6\5-5-6\5-5-6\5-5/6-


Bass (1:58 - 2:01)

---------------------------------

---------------------------------

---------------------------------

-6\5-5-6\5-5-6\5-5-6\5-5-6\5-5/6-


Pre-Chorus
Guitar 1 (2:01 - 2:24)

-8-------8----------------------8------8---------------------
-

--8-8h9---8-8h9--9-----8---------8-8h9--8-8h9--9-----8-------
 

------------------10-8--10-8h10-----------------10-8---10-8b-
 
- Repeat

-------------------------------------------------------------
 
-   x2

-------------------------------------------------------------
 

-------------------------------------------------------------
-


Guitar 2 (2:01 - 2:24)

----------------------------------------------------
-

----------------------------------------------------
 

----------------------------------------------------
 
- Repeat

-33333-33333-66666-66666-1-33333-33333-66666-66666-1
 
-   x2

-33333-33333-66666-66666-1-33333-33333-66666-66666-1
 

-33333-33333-66666-66666-1-33333-33333-66666-66666-1
-


Bass (2:01 - 2:24)

----------------------------------------------------
-

----------------------------------------------------
 
- Repeat

----------------------------------------------------
 
-   x2

-33333-33333-66666-66666-1-33333-33333-66666-66666-1
-


Chorus
Both Guitars (2:24 - 2:34)

----------------------------------
-

----------------------------------
 

----------------------------------
 
- Repeat

-1-1\0----1-1\0----1-1\0----1-1\0-
 
-   x4

-1-1\0----1-1\0----1-1\0----1-1\0-
 

-1-1\0----1-1\0----1-1\0----1-1\0-
-


Bass (2:24 - 2:34)

----------------------------------
-

----------------------------------
 
- Repeat

----------------------------------
 
-   x4

-1-1\0----1-1\0----1-1\0----1-1\0-
-


Guitar 1 (2:35 - 2:45)

--------------------------
-

--------------------------
 

-0h5h7--------------------
 
- Repeat

-------8p7p0-0h5h6-6p5p0--
 
-   x4

--------------------------
 

--------------------------
-


Guitar 2 (2:35 - 2:45)

-----------------------------------------
-

-----------------------------------------
 

-----------------------------------------
 
- Repeat

-6-6-0--1-1\0----1-1\0----1-1\0----1-1\0-
 
-   x4

-6-6-0--1-1\0----1-1\0----1-1\0----1-1\0-
 

-6-6-0--1-1\0----1-1\0----1-1\0----1-1\0-
-


Bass (2:35 - 2:45)

-----------------------------------------
-

-----------------------------------------
 
- Repeat

-----------------------------------------
 
-   x4

-6-6-0--1-1\0----1-1\0----1-1\0----1-1\0-
-


Post-Chorus
Guitar 1 (2:45 - 2:49)

--------------------------------------------------------

--------------------------------------------------------

-10-10-10-10-10-10-10-10-10-10-10-10-10-10-10-10-10-----

--x--x--x--x--x--x--x--x--x--x--x--x--x--x--x--x--x-----

--8--8--8--8--8--8--8--8--8--8--8--8--8--8--8--8--8-----

--------------------------------------------------------


Guitar 2 (2:45 - 2:49)

--------------------------------------------------------

--------------------------------------------------------

-13-13-13-13-13-13-13-13-13-13-13-13-13-13-13-13-13-----

--x--x--x--x--x--x--x--x--x--x--x--x--x--x--x--x--x-----

-11-11-11-11-11-11-11-11-11-11-11-11-11-11-11-11-11-----

--------------------------------------------------------


Bass (2:45 - 2:49)

---------------------------------------

---------------------------------------

-8-8-8-8-8-8-8-8-8-8-8-8-8-8-8-8-8-----

---------------------------------------


Pause (2:49 - 3:00)

Bridge
Guitar 2 (3:00 - 3:11)

-------------------------------------------------
-

-------------------------------------------------
 

-------------------------------------------------
 
- Repeat

-00000-00000-00000-00000-00000-00000-00000-00000-
 
-   x2

-00000-00000-00000-00000-00000-00000-00000-00000-
 

-00000-00000-00000-00000-00000-00000-00000-00000-
-

  ..... ..... ..... ..... ..... ..... ..... .....

Bass (3:00 - 3:11)

-------------------------------------------------
-

-------------------------------------------------
 
- Repeat

-------------------------------------------------
 
-   x2

-00000-00000-00000-00000-00000-00000-00000-00000-
-

  ..... ..... ..... ..... ..... ..... ..... .....

Guitar 1 (3:00 - 3:11)

--------

-6------

-5------

-5------

--------

--------


Guitar 1 (3:11 - 3:15)

----------------------

--6-4-3-------3-4-3---

--5-5-5-5-4-5-5-5-5-5-

--------5-5-5-------5-

----------------------

----------------------


Then
Guitar 2 (3:15 - 3:27)

-------------------------------------------------
-

-------------------------------------------------
 

-------------------------------------------------
 
- Repeat

-00000-00000-00000-00000-00000-00000-00000-00000-
 
-   x2

-00000-00000-00000-00000-00000-00000-00000-00000-
 

-00000-00000-00000-00000-00000-00000-00000-00000-
-

  ..... ..... ..... ..... ..... ..... ..... .....

Bass (3:15 - 3:27)

-------------------------------------------------

-------------------------------------------------

-------------------------------------------------

-00000-00000-00000-00000-00000-00000-00000-00000-

  ..... ..... ..... ..... ..... ..... ..... .....

Both Guitars (3:27 - 3:31)

-----------------------

-----------------------

-----------------------

-6-4-3-1-0/1-3/4\3-1-0-

-6-4-3-1-0/1-3/4\3-1-0-

-6-4-3-1-0/1-3/4\3-1-0-


Bass (3:27 - 3:31)

-----------------------

-----------------------

-----------------------

-6-4-3-1-0/1-3/4\3-1-0-


Then
Guitar 1 (3:31 - 3:42)

----------------------------------------------------
-

----------------------------------------------------
 

-7-------------7-----------7-------------7---10---9-
 
- Repeat

---0-7/8-0-7-0---0-2/3\2-0---0-7/8-0-8-0---0----0---
 
-   x2

----------------------------------------------------
 

----------------------------------------------------
-


Guitar 2 (3:31 - 3:42)

-------------------------------------------------
-

-------------------------------------------------
 

-------------------------------------------------
 
- Repeat

-00000-00000-00000-00000-00000-00000-00000-00000-
 
-   x2

-00000-00000-00000-00000-00000-00000-00000-00000-
 

-00000-00000-00000-00000-00000-00000-00000-00000-
-

  ..... ..... ..... ..... ..... ..... ..... .....

Bass (3:31 - 3:42)

-------------------------------------------------
-

-------------------------------------------------
 
- Repeat

-------------------------------------------------
 
-   x2

-00000-00000-00000-00000-00000-00000-00000-00000-
-

  ..... ..... ..... ..... ..... ..... ..... .....

Guitar 1 (3:42 - 3:46)

-------------------

-------------------

-------------------

-6-4-3-1-0/1-3/4\3-

-6-4-3-1-0/1-3/4\3-

-6-4-3-1-0/1-3/4\3-


Chorus
Both Guitars (3:46 - 3:58)

----------------------------------
-

----------------------------------
 

----------------------------------
 
- Repeat

-1-1\0----1-1\0----1-1\0----1-1\0-
 
-   x4

-1-1\0----1-1\0----1-1\0----1-1\0-
 

-1-1\0----1-1\0----1-1\0----1-1\0-
-


Bass (3:46 - 3:58)

----------------------------------
-

----------------------------------
 
- Repeat

----------------------------------
 
-   x4

-1-1\0----1-1\0----1-1\0----1-1\0-
-


Guitar 1 (3:59 - 4:08)

--------------------------
-

--------------------------
 

-0h5h7--------------------
 
- Repeat

-------8p7p0-0h5h6-6p5p0--
 
-   x4

--------------------------
 

--------------------------
-


Guitar 2 (3:58 - 4:08)

-----------------------------------------
-

-----------------------------------------
 

-----------------------------------------
 
- Repeat

-6-6-0--1-1\0----1-1\0----1-1\0----1-1\0-
 
-   x4

-6-6-0--1-1\0----1-1\0----1-1\0----1-1\0-
 

-6-6-0--1-1\0----1-1\0----1-1\0----1-1\0-
-


Bass (3:58 - 4:08)

-----------------------------------------
-

-----------------------------------------
 
- Repeat

-----------------------------------------
 
-   x4

-6-6-0--1-1\0----1-1\0----1-1\0----1-1\0-
-


Ending
Guitar 1 (4:08 - 4:10)

---------------

---------------

---------------

-3/4-4\3/4-1\0-

-3/4-4\3/4-1\0-

-3/4-4\3/4-1\0-



Lyrics:
So now you're suffering
the fallacy of what you said
When you uncover the depression
from where you've tread
Breathe over the glass you wrote on
Swallow all that you waste your throat on
You wear the make and wave the banner
they made with sin
Revealing every single lie
that you've been breeding within
Wash over the skin you've broken
Think over the tone you spoke in

So lost in your affliction / addiction
The solemn comfort of your grave
If you close your eyes
the light can't take it away

Not I - I won't conform to what I see in you
Not I - I won't surrender what I am
Not I - And even if it was a part of me
Not I - I'll never be that way again

The blind will follow on the path
that you created in vain
No guiding light, but just the shadow
of the dead will remain
Dig open the pain you're hiding
Give your hand to the faith you're fighting
The void you suffer is a curse
forever bleeding inside
Now you embrace the fatal sickness
you should despise
Remember the day you lost that
Where is the shame that will
bring your soul back

So lost in your affliction / addiction
The solemn comfort of your grave
If you close your eyes
the light can't take it away

Not I - I won't conform to what I see in you
Not I - I won't surrender what I am
Not I - And even if it was a part of me
Not I - I'll never be that way again

Reach back behind your pride
And pull the thorn from your burning pain in your
side

Sing me a new song
A broken song of redemption and regret
Sing me a new song
And beg for all the mercy you can get

Not I - I won't conform to what I see in you
Not I - I won't surrender what I am
Not I - And even if it was a part of me
Not I - I'll never be that way again

----------------------------------------------------------------------------

Band: Demon Hunter
Song: Undying
Album: The Tryptch
Tabber: MajinGaara
Tunning: Drop B (B-F#-B-E-G#-C#)

Here is the correct Undying tab I did, this tab was taking from my soon to be finished
tab; Also includes bass lines! enjoy!

-------------------------------
**UPDATE!!!** 3/18/07
I have fixed several guitar parts and adding in new ones. NOW it should be more correct
ever!
Still trying to figure out the exact bass, It's not all correct yet. Bynow most of the
should be pretty correct, still trying to figure out the exact chorus to. Ill have Ethan
me with it. Thanks!
-------------------------------

=========================================

-------------==
UNDYING
==---------------

=========================================

Track: Undying
Track Number: 03
Duration: 4:21
Guitar Tunning: Drop B (B F# B E G# C#)
Bass Tunning: Drop B (B F# B E)
Effects Used: Wah Wah Pedal
Techniques Used: Pinched Harmonic,
Palm Muting, Sliding, bending
Instruments/Musicians: Ethan; Lead Guitar,
Don; Rythem Guitar, Jon; Bass
Song Notes: None
Tab Legend:
/ = slide up
\ = slide down
. = Palm Mute
* = Pinched Harmonic
~ = Vibrato
b = Slight bend

============--\\\\\\\\\\\\\\\\\\\\\\\\\\\\\\\\\\\\\\\\\\\\\\\\\\\\\\\\\\\\\
INTRO==---
================================================================
============--/////////////////////////////////////////////////////////////
(Use Wah Wah Pressed up)
0:00
Ethan - Lead
G#
-------------------------------------------------------------------

C#
-------------------------------------------------------------------

E 
-------------------------------------------------------------------

B 
-------------------------------------------------------------------

F#
-------3/6-----5/8---------8-4---------3-5-----3-5-----------------

B 
-1-0-0-----0-0-----0-0-0-0-----0-1-0-0-----0-0-----0-0-0-0-0-3-2-0-
 X2

0:12
Both Guitars:
G#
-------------------------------------------------------------------

C#
-------------------------------------------------------------------

E 
-------5-8-----7-10--------106---------5-7-----5-7-----------------

B 
-------x-x-----x-x---------x-x---------x-x-----x-x-----------------

F#
-1-0-0-3/6-----5/8---------8-4-0-1-----3-5-----3-5-0-0-0-0-0-3-2-0-

B 
-1-0-0-----0-0-----0000000-----0-1--0-0-----0-0----0-0-0-0-0-3-2-0-
 X2
               . .     .......         . .     . .

Jon - Bass
E 
-------------------------------------------------------------------

B 
-------------------------------------------------------------------

F#
-------3/6-----5/8---------8-4-0-------3-5-----3-5-----------------

B 
-1-0-0-----0-0-----0000000-------1-0-0-----0-0-----0-0-0-0-0-3-2-0-
 X2

=========--\\\\\\\\\\\\\\\\\\\\\\\\\\\\\\\\\\\\\\\\\\\\\\\\\\\\\\\\\\\\\\\\
PRE VERSE==---
============================================================
=========--////////////////////////////////////////////////////////////////

0:24

Don - Rythem:
C#
-----------------------------------------------------------------

G#
-----------------------------------------------------------------

E 
-----------------------------------------------------------------

B 
-----------------------------------------------------------------

F#
-3-----3-----3-----3-----5---5---3-----3-----3-----5---5---1b----

B 
---0-0---0-0---0-0---0-0---0---0---0-0---0-0---0-0---0---0-------



Ethan - Lead:
C#
-----------------------------------------------------------------

G#
-----------------------------------------------------------------

E 
-----------------------------------------------------------------

B 
-----------------------------------------------------------------

F#
-----------------------------------------------------------1*~---

B 
-----------------------------------------------------------------


=========--\\\\\\\\\\\\\\\\\\\\\\\\\\\\\\\\\\\\\\\\\\\\\\\\\\\\\\\\\\\\\\\\
VERSE 1==---
==============================================================
=========--////////////////////////////////////////////////////////////////

0:32
Don - Rythem
"Ever since the day that I was made..."
C#
--------------------------------------------------------------------

G#
--------------------------------------------------------------------

E 
--------------------------------------------------------------------

B 
--------------------------------------------------------------------

F#
--3-----3-----3-----3-----5---5---3-----3-----3-----5---5---1b------

B 
----0-0---0-0---0-0---0-0---0---0---0-0---0-0---0-0---0---0----0----
X2

Jon - Bass
(Let open notes ring; listen to song for the exact rythem)
E 
-------------------------------------------------------------------

B 
-------------------------------------------------------------------

F#
-------------------------------------------------------------------

B 
-0-----------------------0-8-------------5---------7---------------
X2

0:45
Both Guitars:
"Nobody ever made a force that took a beating like me..."
C#
--------------------------------------------------------------------

G#
--------------------------------------------------------------------

E 
--------------------------------------------------------------------

B 
--------------------------------------------------------------------

F#
--3-----3-----3-----3-----5---5---3-----3-----3-----5---5---1b------

B 
----0-0---0-0---0-0---0-0---0---0---0-0---0-0---0-0---0---0----0----
X2
        . .   . .   . .   . .   .   .   . .   . .   . .   .   .    .

Jon - Bass
E 
-------------------------------------------------------------------

B 
-------------------------------------------------------------------

F#
-------------------------------------------------------------------

B 
-0-0-0-0-0-0-0-0-0-0-0-0-0-8-8-8-8-8-8-8-8-8-8-5-5-5-5-7-7-7-7-7-7-
 X2

============--\\\\\\\\\\\\\\\\\\\\\\\\\\\\\\\\\\\\\\\\\\\\\\\\\\\\\\\\\\\\\
PRE CHORUS==---
===========================================================
============--/////////////////////////////////////////////////////////////

0:57
"When this season ends..."
Don - Rythem
G#
-----------------------------------------------------------------

C#
-----------------------------------------------------------------

E 
-5--5--5--5--5--5--5--5--5--5--8--7--7--7--7--7--7--7--7--7--7--7

B 
-x--x--x--x--x--x--x--x--x--x--x--x--x--x--x--x--x--x--x--x--x--x

F#
-3--3--3--3--3--3--3--3--3--3--6--5--5--5--5--5--5--5--5--5--5--5

B 
-----------------------------------------------------------------


Ethan - Lead
G#
-14----14----14----14----14----14----14----14----14----14----14--

C#
----15----15----15----15----15----15----15----15----15----15---15

E 
-----------------------------------------------------------------

B 
-----------------------------------------------------------------

F#
-----------------------------------------------------------------

B 
-----------------------------------------------------------------


============--\\\\\\\\\\\\\\\\\\\\\\\\\\\\\\\\\\\\\\\\\\\\\\\\\\\\\\\\\\\\\
CHORUS==---
===============================================================
============--/////////////////////////////////////////////////////////////

(I discovered it seems that they have both guitarists, and a overdubbed
guitar for the chorus. Here are all the parts:

1:11
"Heartbreak, And blinding lights will guide our way..."
Ethan - Lead
G#
------------------------------------------------

C#
------------------------------------------------

E 
----------------5-5-5-5-5-5-5-8-7-7-7-7-7-7-7-7-

B 
-3-3-3-1--------x-x-x-x-x-x-x-x-x-x-x-x-x-x-x-x-

F#
-3-3-3-1--------3-3-3-3-3-3-3-6-5-5-5-5-5-5-5-5-

B 
-3-3-3-1----------------------------------------
 X4

Don - Rythem
G#
----------------------------------------------

C#
----------------------------------------------

E 
----------------------------------------------

B 
-3-3-3-1--------6-6-6-6-6-6-6-6-8-8-8-8-8-8-8-

F#
-3-3-3-1--------6-6-6-6-6-6-6-6-8-8-8-8-8-8-8-

B 
-3-3-3-1--------6-6-6-6-6-6-6-6-8-8-8-8-8-8-8-
 X4

Overdub Guitar
(This guitar is quiet but if you listen closely you can hear it)
G#
----------------------------------------------------

C#
----------------------------------------------------

E 
-13-13-13-12----------------------------------------

B 
-x--x--x--x---------6-6-6-6-6-6-6-6-8-8-8-8-8-8-8-8-

F#
-11-11-11-10--------6-6-6-6-6-6-6-6-8-8-8-8-8-8-8-8-

B 
--------------------6-6-6-6-6-6-6-6-8-8-8-8-8-8-8-8-
 X4

Jon - Bass
E 
------------------------------------------------

B 
------------------------------------------------

F#
------------------------------------------------

B 
-3-3-3-1--------6-6-6-6-6-6-6-6-8-8-8-8-8-8-8-8-
 X4

=========--\\\\\\\\\\\\\\\\\\\\\\\\\\\\\\\\\\\\\\\\\\\\\\\\\\\\\\\\\\\\\\\\
PRE VERSE==---
============================================================
=========--////////////////////////////////////////////////////////////////

1:26
Both Guitars:
G#
-------------------------------------------------------------------

C#
-------------------------------------------------------------------

E 
-------5-8-----7-10--------106---------5-7-----5-7-----------------

B 
-------x-x-----x-x---------x-x---------x-x-----x-x-----------------

F#
-1-0-0-3/6-----5/8---------8-4-0-1-----3-5-----3-5-0-0-0-0-0-3-2-0-

B 
-1-0-0-----0-0-----0000000-----0-1-0-0-----0-0-----0-0-0-0-0-3-2-0-

               . .     .......         . .     . .
Jon - Bass
E 
-------------------------------------------------------------------

B 
-------------------------------------------------------------------

F#
-------3/6-----5/8---------8-4---------3-5-----3-5-----------------

B 
-1-0-0-----0-0-----0000000-----0-1-0-0-----0-0-----0-0-0-0-0-3-2-0-


1:32
Don - Rythem
C#
--------------------------------------------------------------------

G#
--------------------------------------------------------------------

E 
--------------------------------------------------------------------

B 
--------------------------------------------------------------------

F#
--3-----3-----3-----3-----5---5---3-----3-----3-----5---5---1b------

B 
----0-0---0-0---0-0---0-0---0---0---0-0---0-0---0-0---0---0----0----


Ethan - Lead
C#
-------------------------------------------------------------------

G#
-------------------------------------------------------------------

E 
-------------------------------------------------------------------

B 
------------------------------------------------------------1*~----

F#
---------------------------------------------------------1*~-------

B 
-------------------------------------------------------------------


=========--\\\\\\\\\\\\\\\\\\\\\\\\\\\\\\\\\\\\\\\\\\\\\\\\\\\\\\\\\\\\\\\\
VERSE 2==---
==============================================================
=========--////////////////////////////////////////////////////////////////

1:39
Don - Rythem:
"Tearing through these days I find..."
C#
--------------------------------------------------------------------

G#
--------------------------------------------------------------------

E 
--------------------------------------------------------------------

B 
--------------------------------------------------------------------

F#
--3-----3-----3-----3-----5---5---3-----3-----3-----5---5---1b------

B 
----0-0---0-0---0-0---0-0---0---0---0-0---0-0---0-0---0---0----0----


Jon - Bass
(listen to song for the exact rythem)
E 
-------------------------------------------------------------------

B 
-------------------------------------------------------------------

F#
-------------------------------------------------------------------

B 
-0-----------------------0-8-------------5---------7---------------


1:45
Both Guitars:
"No one can take away the blood that covers over my fall..."
C#
--------------------------------------------------------------------

G#
--------------------------------------------------------------------

E 
--------------------------------------------------------------------

B 
--------------------------------------------------------------------

F#
--3-----3-----3-----3-----5---5---3-----3-----3-----5---5---1b------

B 
----0-0---0-0---0-0---0-0---0---0---0-0---0-0---0-0---0---0----0----
X2
        . .   . .   . .   . .   .   .   . .   . .   . .   .   .    .

Jon - Bass
E 
-------------------------------------------------------------------

B 
-------------------------------------------------------------------

F#
-------------------------------------------------------------------

B 
-0-0-0-0-0-0-0-0-0-0-0-0-0-8-8-8-8-8-8-8-8-8-8-5-5-5-5-7-7-7-7-7-7-
 X2

1:58
"When this season ends..."
PLAY PRE CHORUS

2:01
"Heartbreak, And blinding lights will guide our way..."
PLAY CHORUS

=========--\\\\\\\\\\\\\\\\\\\\\\\\\\\\\\\\\\\\\\\\\\\\\\\\\\\\\\\\\\\\\\\\
BRIDGE==---
===============================================================
=========--////////////////////////////////////////////////////////////////

2:27
Both Guitars:
(Let ring through the whole measure)
C#
------------------------------------------------------

G#
------------------------------------------------------

E 
------------------------------------------------------

B 
-0----------------------------------------------------

F#
-0----------------------------------------------------

B 
-0----------------------------------------------------


2:31
Don - Rythem
(When you go to play this riff over play these 2 riffs displayed below
not just the small 11 noted riff)
G#
-----------------------------------------------------------------

C#
-----------------------------------------------------------------

E 
-----------------------------------------------------------------

B 
-----------------------------------------------------------------

F#
12-0-0-12-0-0-12-0-0-12-0-0-15-0-15-0-13-0-0-13-0-0-13-0-0-13-0-0

B 
-----------------------------------------------------------------


C#
------------

G#
------------

E 
------------

B 
------------

F#
-11-0-11-0--

B 
------------
 X4

2:43
Ethan - Lead
(The 3rd in on the above lead this below riff starts kicking in)
(Normaly the open notes would be wrighten like 00000-0-00 ect. but I
zoomed this riff in and thought it would be eaiser to show you)
"Were the ones who still remain when all is laid to waist..."
C#
------------------------------------------------

G#
------------------------------------------------

E 
------------------------------------------------

B 
----------------------------------------1/6-1/6-

F#
-0-0-0-0----0---0-0--0-0--0-0-0-0--0-0--1/6-1/6-

B 
-0-0-0-0----0---0-0--0-0--0-0-0-0--0-0--1/6-1/6-
 X4
     . . . .    .   . .  . .  . . . .  . .

Jon - Bass
E 
------------------------------------------------

B 
------------------------------------------------

F#
------------------------------------------------

B 
-0-0-0-0----0---0-0--0-0--0-0-0-0--0-0--1/6-1/6-
 X4

2:55
Both Guitars:
"We are the ones..."
C#
------------------------------------------------

G#
------------------------------------------------

E 
------------------------------------------------

B 
----------------------------------------1/6-1/6-

F#
-0-0-0-0----0---0-0--0-0--0-0-0-0--0-0--1/6-1/6-

B 
-0-0-0-0----0---0-0--0-0--0-0-0-0--0-0--1/6-1/6-
 X4
     . . . .    .   . .  . .  . . . .  . .

Jon - Bass
E 
------------------------------------------------

B 
------------------------------------------------

F#
------------------------------------------------

B 
-0-0-0-0----0---0-0--0-0--0-0-0-0--0-0--1/6-1/6-
 X4

3:08
Quietly you have 2 haprsichords in the background  playing this:
Harpsichord Rythem
"When This season ends..."
C#
-2---2---2---2---2---2---2---2---2---2---

G#
---3---3---3---3---3---3---3---3---3---3-

E 
-----------------------------------------

B 
-----------------------------------------

F#
-----------------------------------------

B 
-----------------------------------------
 X2

Harpsichord Lead
C#
-----------------------------------------

G#
----------------------4-3----------------

E 
-5------------------5--------------------

B 
-----------------------------------------

F#
-----------------------------------------

B 
-----------------------------------------
 X2

3:12
(The second the time throught the above riff play this)
(This Is a guitar with wah wah effect pressed up down then up,
hit the note then let it ring and slowly press the wah wah up)
Ethan - Lead
"Un-dy-ing..."
      "One final..."
C#
---

G#
---

E 
---

B 
---

F#
-5-

B 
---


3:16
"Heartbeak, And blinding lights will guide our way
PLAY CHORUS

=========--\\\\\\\\\\\\\\\\\\\\\\\\\\\\\\\\\\\\\\\\\\\\\\\\\\\\\\\\\\\\\\\\
ENDING==---
===============================================================
=========--////////////////////////////////////////////////////////////////

3:40
Both Guitars:
                                                            "Un-dy-ing..."
G#
-------------------------------------------------------------------

C#
-------------------------------------------------------------------

E 
-------5-8-----7-10--------106---------5-7-----5-7-----------------

B 
-------x-x-----x-x---------x-x---------x-x-----x-x-----------------

F#
-1-0-0-3/6-----5/8---------8-4-0-1-----3-5-----3-5-0-0-0-0-0-3-2-0-

B 
-1-0-0-----0-0-----0000000-----0-1--0-0-----0-0----0-0-0-0-0-3-2-0-

               . .     .......         . .     . .
Jon - Bass
(Just Play this 3x(three times) after the last chorus)
E 
-------------------------------------------------------------------

B 
-------------------------------------------------------------------

F#
-------3/6-----5/8---------8-4---------3-5-----3-5-----------------

B 
-1-0-0-----0-0-----0000000-----0-1--0-0-----0-0----0-0-0-0-0-3-2-0-
 X3

3:47
Both Guitars:
                                                                "Yea!..."
G#
-------------------------------------------------------------------

C#
-------------------------------------------------------------------

E 
-------5-8-----7-10--------106---5-----5-7-----5-7-----------------

B 
-------x-x-----x-x---------x-x---x-----x-x-----x-x-----------------

F#
-1-0-0-3/6-----5/8---------8-4-0-3-----3-5-----3-5-0-0-0-0-0-3-2-0-

B 
-1-0-0-----0-0-----0000000-----0---0-0-----0-0-----0-0-0-0-0-3-2-0-

               . .     .......         . .     . .
3:54
(Strum the chords fast, listen to song for the speed)
Ethan - Lead
G#
----------------------------------------------------------------------

C#
-15-15-15-15-15-15-15-15-15-15-15-15-15-15-15-15-16-16-16-16-16-16-16-

E 
-x--x--x--x--x--x--x--x--x--x--x--x--x--x--x--x--x--x--x--x--x--x--x--

B 
-12-12-12-12-12-12-12-12-12-12-12-12-12-12-12-12-13-13-13-13-13-13-13-

F#
----------------------------------------------------------------------

B 
----------------------------------------------------------------------


Ethan - Lead
G#
----------------------------------------------------------------------

C#
-16-16-16-16-16-16-16-16-16-13-13-13-13-13-13-13-13-13-13-13-13-13-13-

E 
-x--x--x--x--x--x--x--x--x--x--x--x--x--x--x--x--x--x--x--x--x--x--x--

B 
-13-13-13-13-13-13-13-13-13-10-10-10-10-10-10-10-10-10-10-10-10-10-10-

F#
----------------------------------------------------------------------

B 
----------------------------------------------------------------------


Ethan - Lead
G#
-------------------------------------------------------

C#
-13-13-16-16-16-16-16-16-16-16-16-16-16-16-16-16-16-16-

E 
-x--x--x--x--x--x--x--x--x--x--x--x--x--x--x--x--x--x--

B 
-10-10-13-13-13-13-13-13-13-13-13-13-13-13-13-13-13-13-

F#
-------------------------------------------------------

B 
-------------------------------------------------------


Don - Rythem
G#
-------------------------------------------------------------------

C#
-------------------------------------------------------------------

E 
-------5-8-----7-10--------106---------5-7-----5-7-----------------

B 
-------x-x-----x-x---------x-x---------x-x-----x-x-----------------

F#
-1-0-0-3/6-----5/8---------8-4-0-1-----3-5-----3-5-0-0-0-0-0-3-2-0-

B 
-1-0-0-----0-0-----0000000-----0-1-0-0-----0-0-----0-0-0-0-0-3-2-0-


4:00
Ethan - Lead
G#
--------------------------------------------------------------------

C#
--------------------------------------------------------------------

E 
--------------------------------------------------------------------

B 
-13-0-0-0-0-0-10-0-13-0-0-0-0-0-12-0-15-0-0-0-0-0-0-0-0-15-0-11-0-0-

F#
--------------------------------------------------------------------

B 
--------------------------------------------------------------------


Ethan - Lead
G#
------------------------------------------

C#
------------------------------------------

E 
------------------------------------------

B 
-0-12-0-0-0-0-0-10-0-12-0-0-0-0-0-10-0-12-

F#
------------------------------------------

B 
------------------------------------------


Don - Rythem
G#
-----------------------------------------------------

C#
-----------------------------------------------------

E 
-------5-8-----7-10--------106---------5-7-----5-7---

B 
-------x-x-----x-x---------x-x---------x-x-----x-x---

F#
-1-0-0-3/6-----5/8---------8-4-0-1-----3-5-----3-5---

B 
-1-0-0-----0-0-----0000000-----0-1--0-0-----0-0------

               . .     .......          . .     . .

Jon - Bass
E 
----------------------------------------------------

B 
----------------------------------------------------

F#
-------3/6-----5/8---------8-4---------3-5-----3-5--

B 
-1-0-0-----0-0-----0000000-----0-1-0-0-----0-0------


4:05
(Fade out with these riffs)
Harpsichord Rythem
C#
-2---2---2---2---2---2---2---2---2---2---

G#
---3---3---3---3---3---3---3---3---3---3-

E 
-----------------------------------------

B 
-----------------------------------------

F#
-----------------------------------------

B 
-----------------------------------------
 X4

Harpsichord Lead
C#
-----------------------------------------

G#
----------------------4-3----------------

E 
-5------------------5--------------------

B 
-----------------------------------------

F#
-----------------------------------------

B 
-----------------------------------------
 X4

Song Lyrics:
Undying

Ever since the day that I was made I've been deciding the end
And I was made of wood and stone and won't diminish or bend
So when the heavy hand of death is here to take me away
I'll be the solid grip of time, forever holding my stay
Nobody ever made a force that took a beating like me
I call the earth and every scum to come and try to fight me
Cus when I made the choice to live beyond the dirt that we tread
I felt the curse of mortal limit fall before it was said

[Pre-chorus:]
When this season ends

[Chorus:]
One final heart-break
And blinding lights will guide our way
Free us our blind state
They will call us by our name
Undying

Tearing through these days I find
The tolerance to strive and push on
I know what lies beyond this life for me is already won
No one can take away the blood that covers over my fall
Without the blood of perfect life
I know I'm nothing at all
So now I reign forever hallowed in eternity's hand
No man can shake me from the everlasting ground that I stand

[Pre-chorus]

[Chorus]

We are the ones who will still remain when all is laid to waste
We are the ones who, when angels cry, will see them face to face
We are the ones

[Chorus]

----------------------------------------------------------------------------

Demon Hunter-Relentless Intolerance
From:The Triptych
Drop B Tuning B-F#-B-E-G#-C#

palm mute=..., etc.
b=bend
v=vibrato

Intro
Gtr. 1
E [-10-10-------10/10---]
B [--x--x-9/9/9--x/-x-9-]
F#[--8--8-9/9/9--8/-8-9-]x7
B [-------9/9/9-------9-]

E [-10-10-------10/10-----------]
B [--x--x-9/9/9--x/-x-9-0/5/7/0-]
F#[--8--8-9/9/9--8/-8-9-0/5/7/0-]x4
B [-------9/9/9-------9-0/5/7/0-]

E [-10-10-------10/10---------------------]
B [--x--x-9/9/9--x/-x-9-0/5/7/0/8/7/0/0---]
F#[--8--8-9/9/9--8/-8-9-0/5/7/0/8/7/0/0---]
B [-------9/9/9-------9-0/5/7/0/8/7/0/0---]
Then Gtr. 2
B [-0/0/0/0/0/0/0/0-]
F#[-0/0/0/0/0/0/0/0-]
B [-0/0/0/0/0/0/0/0-]
    ...............
Then Gtr. 1
B [-0/3/5/0/6/5/0-]
F#[-0/3/5/0/6/5/0-]
B [-0/3/5/0/6/5/0-]

Verse 1
Gtr. 2
B [-0/0-0/0-0-]
F#[-0/0-0/0-0-]
B [-0/0-0/0-0-]
    ... ... .
Then Gtr. 1
B [-0/5/7/0/8/7/0-]
F#[-0/5/7/0/8/7/0-]
B [-0/5/7/0/8/7/0-]
Then Gtr.2
B [-0/0/0/0/0/0/0/0-]
F#[-0/0/0/0/0/0/0/0-]
B [-0/0/0/0/0/0/0/0-]
    ...............
Then Gtr. 1
B [-0/3/5/0/6/5/0-]
F#[-0/3/5/0/6/5/0-]
B [-0/3/5/0/6/5/0-]
Play Verse 1 x4

Pre-Chorus
Gtr. 2
B [-0/0-0/0-0-]
F#[-0/0-0/0-0-]
B [-0/0-0/0-0-]
    ... ... .
Then Gtr. 1
B [-0/5/7-5/8/7--0/3/5-0/3/5b-]
F#[-0/5/7-5/8/7--0/3/5-0/3/5b-]x4
B [-0/5/7-5/8/7--0/3/5-0/3/5b-]
Then both guitars
B [-0/3/5-0/3/5b-0/3/5-0/3/5b-0/1/3/0/1/3/1/0-]
F#[-0/3/5-0/3/5b-0/3/5-0/3/5b-0/1/3/0/1/3/1/0-]
B [-0/3/5-0/3/5b-0/3/5-0/3/5b-0/1/3/0/1/3/1/0-]

Chorus
Both guitars
B [-8--3--3/5/1-----8--3--3/5/1--3-5/5-7-]
F#[-8--3--3/5/1-----8--3--3/5/1--3-5/5-7-]x2
B [-8--3--3/5/1-----8--3--3/5/1--3-5/5-7-]

Post-Chorus
Gtr. 1
E [-10-10-------10/10---------------------]
B [--x--x-9/9/9--x/-x-9-0/5/7/0/8/7/0/0---]
F#[--8--8-9/9/9--8/-8-9-0/5/7/0/8/7/0/0---]
B [-------9/9/9-------9-0/5/7/0/8/7/0/0---]

Verse 2
Gtr. 2
B [-0/0/0/0/0/0/0/0-]
F#[-0/0/0/0/0/0/0/0-]
B [-0/0/0/0/0/0/0/0-]
    ...............
Then Gtr. 1
B [-0/3/5/0/6/5/0-]
F#[-0/3/5/0/6/5/0-]
B [-0/3/5/0/6/5/0-]
Then Gtr. 2
B [-0/0-0/0-0-]
F#[-0/0-0/0-0-]
B [-0/0-0/0-0-]
    ... ... .
Then Gtr. 1
B [-0/5/7/0/8/7/0-]
F#[-0/5/7/0/8/7/0-]
B [-0/5/7/0/8/7/0-]
Play Verse 2 x4

Pre-Chorus

Chorus

Bridge
Both guitars
B [--0-------------]
F#[--0-let it ring-]
B [--0-------------]
Then
E [---------10-]
B [-0/0-0/0--9-]
F#[-0/0-0/0----]x7
B [-0/0-0/0----]
    ... ...
B [-0/0-0/0-]
F#[-0/0-0/0-]
B [-0/0-0/0-]
    ... ...
Stop.
Then
E [---------10----------------]
B [-0/0-0/0--9--0/0-0-5/7/8/7-]
F#[-0/0-0/0-----0/0-0-5/7/8/7-]x4
B [-0/0-0/0-----0/0-0-5/7/8/7-]
    ... ...     ... .
Then Gtr. 2
E [---------10----------------]
B [-0/0-0/0--9--0/0-0-5/7/8/7-]
F#[-0/0-0/0-----0/0-0-5/7/8/7-]x4
B [-0/0-0/0-----0/0-0-5/7/8/7-]
    ... ...     ... .
Gtr. 1
G#[-------------]
E [-7------10/9-]x3
B [--0--7/8-----]

G#[-----10v-]
E [-7-------]
B [--0------]

G#[-------------]
E [-7------10/9-]x3
B [--0--7/8-----]

G#[---------------]
E [-7------10/9-7-]
B [--0--7/8-------]

Chorus 2
Gtr. 2
B [-8--3--3/5/1-----8--3--3/5/1--3-5/5-7-]
F#[-8--3--3/5/1-----8--3--3/5/1--3-5/5-7-]
B [-8--3--3/5/1-----8--3--3/5/1--3-5/5-7-]
Then both guitars
B [-8--3--3/5/1-----8--3--3/5/1--3-5/5-7-]
F#[-8--3--3/5/1-----8--3--3/5/1--3-5/5-7-]
B [-8--3--3/5/1-----8--3--3/5/1--3-5/5-7-]
Then Gtr. 2
B [-8--3--3/5/1-----8--3--3/5/1--3-5/5-7-]
F#[-8--3--3/5/1-----8--3--3/5/1--3-5/5-7-]x2
B [-8--3--3/5/1-----8--3--3/5/1--3-5/5-7-]
Gtr. 1
E [-10--14--14/12/8----10--14--14/15/12-]
B [--x---x---x/-x/x-----x---x---x/-x/-x-]x2
F#[--8--12--12/10/6-----8--12--12/13/10-]

Ending
Gtr. 1
E [-10-10-------10/10---]
B [--x--x-9/9/9--x/-x-9-]
F#[--8--8-9/9/9--8/-8-9-]x2
B [-------9/9/9-------9-]



----------------------------------------------------------------------------

Artist: Demon Hunter
Song: Deteriorate
Album: The Triptych ( In Stores October 25th, 2005 )

There are 2 guitars playing in parts of the song.

This is my first posted tab, so let me know how I did.

Intro - (x4)

E---------------------------------------------------------------------

B---------------------------------------------------------------------

G-------5-------------------------------------------------------------

D-----3---3----------10-----------5-----------------------------------

A------------------7----7-------3---3---------------------------------

D---0-------------7-----------3---------------------------------------


Verse 1 - (x2) - Strums as chords - 1st chord = 8 strums
2nd chord = 8 strums, and 3rd chord = 16 strums,
4th chord = 8 strums, 5th chord = 8 strums. 6th chord = 8 strums
and 7th chord = 8 strums

E-------------------------------------------------------------------

B-------------------------------------------------------------------

G-------------------------------------------------------------------

D---2-------10------5----------2-------10------5-------2------------

A---0-------7-------3----------0-------7-------3-------2------------

D---0-------7-------3----------0-------7-------3-------2------------


Pre-Chorus (x2)

E-------------------------------------------------------------------

B-------------------------------------------------------------------

G-------------------------------------------------------------------

D----8---8---7---7-----12-----12-----10-----10----------------------

A---8---8---7---7----10-----10-----10-----10------------------------

D--8---8---7---7---10-----10-----10-----10--------------------------


Chorus (x2) 1st chord = 8 strums, 2nd chord = 8 strums, 3rd chord = 16 strums

E-------------------------------------------------------------------

B-------------------------------------------------------------------

G-------------------------------------------------------------------

D-------8----------------------5------------------------------------

A-------8-----------0----------5------------------------------------

D-------8-----------0----------5------------------------------------


E-------------------------------------------------------------------

B-------------------------------------------------------------------

G-------------------------------------------------------------------

D-------------8----------8-----------7------------7-----------------

A---------8----------8-----------7------------7---------------------

D-----8----------8----------7-------------7-------------------------



Verse 2 - (x2) - Strums as chords - 1st chord = 8 strums
2nd chord = 8 strums, and 3rd chord = 16 strums,
4th chord = 8 strums, 5th chord = 8 strums. 6th chord = 8 strums
and 7th chord = 8 strums

E-------------------------------------------------------------------

B-------------------------------------------------------------------

G-------------------------------------------------------------------

D---2-------10-------5----------2-------10------5-------2-----------

A---0-------7--------3----------0-------7-------3-------2-----------

D---0-------7--------3----------0-------7-------3-------2-----------


Pre-Chorus (x2)

E-------------------------------------------------------------------

B-------------------------------------------------------------------

G-------------------------------------------------------------------

D----8---8---7---7-----12-----12-----10-----10----------------------

A---8---8---7---7----10-----10-----10-----10------------------------

D--8---8---7---7---10-----10-----10-----10--------------------------



Chorus (x2) 1st chord = 8 strums, 2nd chord = 8 strums, 3rd chord = 16 strums

Chorus (x2) 1st chord = 8 strums, 2nd chord = 8 strums, 3rd chord = 16 strums

E-------------------------------------------------------------------

B-------------------------------------------------------------------

G-------------------------------------------------------------------

D-------8----------------------5------------------------------------

A-------8-----------0----------5------------------------------------

D-------8-----------0----------5------------------------------------



E----------------------------------------------------------------------

B----------------------------------------------------------------------

G---------------------------------------10--10--10-------10--10--10----

D--11111111---33333333---88888888-------X---X---X--------X---X---X-----

A--11111111---33333333---88888888--0-0--8---8---8--0--0--8---8---8-----

D--11111111---33333333---88888888--0-0-------------0--0----------------



Guitar 1 Plays Top line below (x4)
Guitar 2 plays line below that after the first 2 loops play (x2)

E----------------------------------------------------------------------

B----------------------------------------------------------------------

G----------------------------------------------------------------------

D---------8----8-----7-----7-------------------------------------------

A-------8----8-----7-----7---------------------------------------------

D-----8----8-----7-----7-----------------------------------------------


E----------------------------------------------------------------------

B----------------------------------------------------------------------

G---------------------------------12--12--12----14--14--14---10-10-10--

D---------------------------------X---X---X-----X---X---X----X--X--X---

A----0------7--------33333333-----10--10--10----12--12--12---8--8--8---

D----0------7--------33333333------------------------------------------


Outro Chorus (x2) 1st chord = 8 strums, 2nd chord = 8 strums, 3rd chord = 16 strums

E-------------------------------------------------------------------

B-------------------------------------------------------------------

G-------------------------------------------------------------------

D-------8----------------------5------------------------------------

A-------8-----------0----------5------------------------------------

D-------8-----------0----------5------------------------------------



Lyrics:
Not yet available

----------------------------------------------------------------------------

Demon Hunter-The Soldier's Song
From:The Triptych
Drop B Tuning B-F#-B-E-G#-C#

palm mute=..., etc.
p=pull off
v=vibrato
h=hammer on

Intro
Gtr. 1
B [-000-------------------000----------------]
F#[-000-8p7/0/8p7/0/8p7/0-000-8p7/0/8p7/0----]x2
B [-000-------------------000-------------5v-]
    ...                   ...
Then Gtr. 2
B [-000-------------------000----------------]
F#[-000-8p7/0/8p7/0/8p7/0-000-8p7/0/8p7/0----]
B [-000-------------------000-------------5v-]
    ...                   ...
E [-----------------------14/14/14/14/14/14/12/12/12/12/12/12-]
B [-000--------------------x--x--x--x--x--x--x--x--x--x--x--x-]
F#[-000-8p7/0/8p7/0/8p7/0-12-12-12-12-12-12-10-10-10-10-10-10-]
B [-000-------------------------------------------------------]
    ...

Verse 1
Both Guitars
B [-000-------------------000----------------]
F#[-000-8p7/0/8p7/0/8p7/0-000-8p7/0/8p7/0----]
B [-000-------------------000-------------5v-]
    ...                   ...
B [-000-------------------000-------------------]
F#[-000-8p7/0/8p7/0/8p7/0-000-8p7/0/8p7/0/8p7/0-]
B [-000-------------------000-------------------]
    ...                   ...
Then
B [-3----2--6-]
F#[-3----2--6-]
B [-3----2--6-]
(Play Verse 1 x3)

Pre-Chorus
B [-333333-333/333333-333-]
F#[-333333-333/333333-333-]x2
B [-333333-333/333333-333-]
    ...... ... ...... ...
Then
B [-555555-555/555555-555-]
F#[-333333-333/333333-333-]x2
B [-333333-333/333333-333-]

Chorus
Gtr. 2
B [-0----1----5----10----0----1----5---x3/3x3/3--]
F#[-0----1----5----10----0----1----5---x3/3x3/3--]
B [-0----1----5----10----0----1----5---x3/3x3/3--]
Gtr. 1
G#[-----------333/444------444/333------333--------------]
E [--------222-------333----------333------555/222---222-]
B [-000/333-------------555----------555----------333----]

G#[-----------333/444------444/333------333-x3/3x3/3-]
E [--------222-------333----------333-------x3/3x3/3-]
B [-000/333-------------555----------555----x3/3x3/3-]
Repeat Chorus

Interlude
E [-14/14/14/14/14/14/14/14/14/14/14/14/12/12/12/12/12/12/12/12/12/12/12/12]
B [--x--x--x--x--x--x--x--x--x--x--x--x--x--x--x--x--x--x--x--x--x--x--x--x]
F#[-12-12-12-12-12-12-12-12-12-12-12-12-10-10-10-10-10-10-10-10-10-10-10-10]

Verse 2
Gtr. 1
B [-000-------------------000----------------]
F#[-000-8p7/0/8p7/0/8p7/0-000-8p7/0/8p7/0----]
B [-000-------------------000-------------5v-]
    ...                   ...
B [-000-------------------000-------------------]
F#[-000-8p7/0/8p7/0/8p7/0-000-8p7/0/8p7/0/8p7/0-]
B [-000-------------------000-------------------]
    ...                   ...
Gtr. 2
B [-000-7p5/0/7p5/0/7p5/0-000-7p5/0/7p5/0----]
F#[-000-------------------000----------------]
B [-000-------------------000-------------5v-]
    ...                   ...
B [-000-7p5/0/7p5/0/7p5/0-000-7p5/0/7p5/0/7p5/0-]
F#[-000-------------------000-------------------]
B [-000-------------------000-------------------]
    ...                   ...
Then both guitars
B [-3----2--6-]
F#[-3----2--6-]
B [-3----2--6-]
(Play Verse 2 x2)

Pre-Chorus

Chorus

Bridge
Both Guitars
B [--0--]
F#[--0--]
B [--0--]
Then Gtr. 1
He gets kinda sloppy here.
F#[-8p7/0/8p7/0/8p7/0/8p7/0/8p7/0/8p7/0/8p7/0/8p7/0/8p7/0-]x4
Then
Gtr. 1
F#[-8p7/0/8p7/0/8p7/0/8p7/0/8p7/0/8p7/0/8p7/0/8p7/0/8p7/0-]x4
Gtr. 2
B [-3/2/0--3/2/0-3/2/0--3/2/0-]
F#[-3/2/0--3/2/0-3/2/0--3/2/0-]x3
B [-3/2/0--3/2/0-3/2/0--3/2/0-]

B [-3/2/0--3/2/0-3/2/0-xxxxxx-]
F#[-3/2/0--3/2/0-3/2/0-xxxxxx-]
B [-3/2/0--3/2/0-3/2/0-xxxxxx-]
Then
Gtr. 2
B [-3/2/0--3/2/0-3/2/0--3/2/0-]
F#[-3/2/0--3/2/0-3/2/0--3/2/0-]x4
B [-3/2/0--3/2/0-3/2/0--3/2/0-]
Gtr. 1
B [-0000000000000000000000000-]
F#[-0000000000000000000000000-]x4
B [-0000000000000000000000000-]
    .........................
Then
Gtr. 2
B [-6/5/0--6/5/0-6/5/0--6/5/0-]
F#[-6/5/0--6/5/0-6/5/0--6/5/0-]x2
B [-6/5/0--6/5/0-6/5/0--6/5/0-]
Gtr. 1
B [-0000000000000000000000000-]
F#[-0000000000000000000000000-]x2
B [-0000000000000000000000000-]
    .........................
Gtr. 2
B [-3/2/0--3/2/0-3/2/0--3/2/0-]
F#[-3/2/0--3/2/0-3/2/0--3/2/0-]x2
B [-3/2/0--3/2/0-3/2/0--3/2/0-]
Gtr. 1
B [-0000000000000000000000000-]
F#[-0000000000000000000000000-]x2
B [-0000000000000000000000000-]
    .........................
Then
Gtr. 2
B [-3/2/0/000000--3/2/0-3/2/0/000--3/2/0-]
F#[-3/2/0/000000--3/2/0-3/2/0/000--3/2/0-]x4
B [-3/2/0/000000--3/2/0-3/2/0/000--3/2/0-]
          ......              ...
Gtr. 1
Solo
C#[-----------------------------5h6p5----8h10-]
G#[------------1h3/5/6p5/3/5h6/8-----8h10-----]
E [-2/2/2/3/3/3-------------------------------]
    ...........
C#[-17-----13h15/17-17-----13h15/17-16-----13h15/16-16--------]
G#[---18/15-----------18/15-----------18/15-----------18/15---]
E [--------------------------------------------------------14-]

C#[------------------------------------------------]
G#[-10---------10-10---------10-9---------9-9------]
E [---10--10h12-----10--10h12----10--10h12---10/7--]
B [-----12------------12-----------12------------7-]

C#[----------------------------------8v-]
G#[-----------------------5/5/5/8/8/8---]
E [------------5/5/5/7/7/7--------------]
B [-7/7/7/8/8/8-------------------------]
Then both guitars
E [-14/14/14/14/14/14/14/14/14/14/14/14/12/12/12/12/12/12/12/12/12/12/12/12]
B [--x--x--x--x--x--x--x--x--x--x--x--x--x--x--x--x--x--x--x--x--x--x--x--x]
F#[-12-12-12-12-12-12-12-12-12-12-12-12-10-10-10-10-10-10-10-10-10-10-10-10]

Chorus 2
Pause for awhile.
Then
B [-x3/3x3/3-]
F#[-x3/3x3/3-]
B [-x3/3x3/3-]
Then
Gtr. 2
B [-0----1----5----10----0----1----5---x3/3x3/3--]
F#[-0----1----5----10----0----1----5---x3/3x3/3--]
B [-0----1----5----10----0----1----5---x3/3x3/3--]
Gtr. 1
G#[-----------333/444------444/333------333--------------]
E [--------222-------333----------333------555/222---222-]
B [-000/333-------------555----------555----------333----]

G#[-----------333/444------444/333------333-x3/3x3/3-]
E [--------222-------333----------333-------x3/3x3/3-]
B [-000/333-------------555----------555----x3/3x3/3-]

Gtr. 2
B [-0----1----5----10----0----1----5---x3/3x3/3--]
F#[-0----1----5----10----0----1----5---x3/3x3/3--]
B [-0----1----5----10----0----1----5---x3/3x3/3--]
Gtr. 1
G#[-----------333/444------444/333------333--------------]
E [--------222-------333----------333------555/222---222-]
B [-000/333-------------555----------555----------333----]

G#[-----------333/444------444/333------333-x3/3x3/3-]
E [--------222-------333----------333-------x3/3x3/3-]
B [-000/333-------------555----------555----x3/3x3/3-]


Gtr. 2
B [-0----1----5----10----0----1----5---x3/3x3/3--]
F#[-0----1----5----10----0----1----5---x3/3x3/3--]
B [-0----1----5----10----0----1----5---x3/3x3/3--]
Gtr. 1
G#[-----------333/444------444/333------333--------------]
E [--------222-------333----------333------555/222---222-]
B [-000/333-------------555----------555----------333----]

G#[-----------333/444------444/333------333-x3/3x3/3-]
E [--------222-------333----------333-------x3/3x3/3-]
B [-000/333-------------555----------555----x3/3x3/3-]

Outro
Gtr. 2
B [-3/2/0/000000--3/2/0-3/2/0/000--3/2/0-]
F#[-3/2/0/000000--3/2/0-3/2/0/000--3/2/0-]x4
B [-3/2/0/000000--3/2/0-3/2/0/000--3/2/0-]
          ......              ...
B [-6/5/0/000000--6/5/0-6/5/0/000--6/5/0-]
F#[-6/5/0/000000--6/5/0-6/5/0/000--6/5/0-]x2
B [-6/5/0/000000--6/5/0-6/5/0/000--6/5/0-]
          ......              ...
B [-3/2/0/000000--3/2/0-3/2/0/000--3/2/0-]
F#[-3/2/0/000000--3/2/0-3/2/0/000--3/2/0-]x2
B [-3/2/0/000000--3/2/0-3/2/0/000--3/2/0-]
          ......              ...



----------------------------------------------------------------------------

Okay, everyone was tellin me that my FTMS tab sucked (and it did) so I looked around and
this one. Props to Adam K for tabbin this.


Demon Hunter-Fire To My Soul
From:The Triptych
Drop B Tuning B-F#-B-E-G#-C#

slide down=S<
palm mute=..., etc.
slide up=S>
p=pull off
b=bend

Intro
Kinda has backround sound
Gtr. 2
C#[------------------------]
G#[------------------------]
E [------------------------]
B [-S<-00/1/0-S<-0/1/0/1/0-]
F#[-S<-00/1/0-S<-0/1/0/1/0-]x3
B [-S<-00/1/0-S<-0/1/0/1/0-]
       ..
C#[-----------]
G#[-----------]
E [-----------]
B [-S<-00/1/0-]
F#[-S<-00/1/0-]
B [-S<-00/1/0-]
       ..
Then Gtr. 1
C#[-------]
G#[-------]
E [-------]
B [-1-8-1-]
F#[-1-8-1-]
B [-1-8-1-]

Then both guitars
C#[----------------------------------------------]
G#[-10---------------------9---------------------]
E [------------7---------------------7-----------]
B [---0-1/0/0----0/1/0/1/0---0-1/0/0---0/1/0/1/0-]
F#[---0-1/0/0----0/1/0/1/0---0-1/0/0---0/1/0/1/0-]x3
B [---0-1/0/0----0/1/0/1/0---0-1/0/0---0/1/0/1/0-]

C#[---------------------------------------]
G#[-10---------------------9--------------]
E [------------7--------------------------]
B [---0-1/0/0----0/1/0/1/0---0-1/0/0--1S>-]
F#[---0-1/0/0----0/1/0/1/0---0-1/0/0--1S>-]
B [---0-1/0/0----0/1/0/1/0---0-1/0/0--1S>-]

Interlude
Gtr. 2
He uses some sort of pedal
C#[------------------------------]
G#[------------------------------]
E [------------------------------]
B [-12p0/0-12p0/0/12p0/0-12p0/13-]
F#[-12p0/0-12p0/0/12p0/0-12p0/13-]
B [-12p0/0-12p0/0/12p0/0-12p0/13-]
    ............................
C#[------------------------------]
G#[------------------------------]
E [------------------------------]
B [-12p0/0-12p0/0/12p0/0-12p0/13-]
F#[-12p0/0-12p0/0/12p0/0-12p0/13-]
B [-12p0/0-12p0/0/12p0/0-12p0/13-]
    .................
C#[------------------------------]
G#[------------------------------]
E [------------------------------]
B [-12p0/0-12p0/0/12p0/0-12p0/13-]
F#[-12p0/0-12p0/0/12p0/0-12p0/13-]x2
B [-12p0/0-12p0/0/12p0/0-12p0/13-]

Verse 1

Gtr. 2
C#[------------------------------]
G#[------------------------------]
E [------------------------------]
B [-12p0/0-12p0/0/12p0/0-12p0/13-]
F#[-12p0/0-12p0/0/12p0/0-12p0/13-]
B [-12p0/0-12p0/0/12p0/0-12p0/13-]

Gtr. 1
C#[-------------------------------]
G#[-------------------------------]
E [-14/14/14/14/14/14/14/14/14/14-]
B [--x--x--x--x--x--x--x--x--x--x-]
F#[-12/12/12/12/12/12/12/12/12/12-]
B [-------------------------------]

Then

Gtr. 2
C#[------------------------------]
G#[------------------------------]
E [------------------------------]
B [-12p0/0-12p0/0/12p0/0-12p0/13-]
F#[-12p0/0-12p0/0/12p0/0-12p0/13-]
B [-12p0/0-12p0/0/12p0/0-12p0/13-]

Gtr. 1
C#[-------------------------------]
G#[-------------------------------]
E [-13/13/13/13/13/13/13/13/13/13-]
B [--x--x--x--x--x--x--x--x--x--x-]
F#[-11/11/11/11/11/11/11/11/11/11-]
B [-------------------------------]

Then

Gtr. 2
C#[------------------------------]
G#[------------------------------]
E [------------------------------]
B [-12p0/0-12p0/0/12p0/0-12p0/13-]
F#[-12p0/0-12p0/0/12p0/0-12p0/13-]
B [-12p0/0-12p0/0/12p0/0-12p0/13-]

Gtr. 1
C#[-------------------------------]
G#[-------------------------------]
E [-12/12/12/12/12/12/12/12/12/12-]
B [--x--x--x--x--x--x--x--x--x--x-]
F#[-10/10/10/10/10/10/10/10/10/10-]
B [-------------------------------]

Then

Gtr. 2
C#[------------------------------]
G#[------------------------------]
E [------------------------------]
B [-12p0/0-12p0/0/12p0/0-12p0/13-]
F#[-12p0/0-12p0/0/12p0/0-12p0/13-]
B [-12p0/0-12p0/0/12p0/0-12p0/13-]

Gtr. 1
C#[-------------------------------]
G#[-------------------------------]
E [-11/11/11/11/11/11/11/11/11/11-]
B [--x--x--x--x--x--x--x--x--x--x-]
F#[--9--9--9--9--9--9--9--9--9--9-]
B [-------------------------------]

Repeat verse.

Pre-Chorus

C3[----------------------------------------]
G#[----------------------------------------]
E [----------------------------------------]
B [-6/5/1-8/7/10-0000-1/0-0/0-0000-1/0-0/0-]
F#[-6/5/1-8/7/10-0000-1/0-0/0-0000-1/0-0/0-]x3
B [-6/5/1-8/7/10-0000-1/0-0/0-0000-1/0-0/0-]
                 ....         ....
C#[-------------]
G#[-------------]
E [-------------]
B [6/5/1-8/7/10-]
F#[6/5/1-8/7/10-]
B [6/5/1-8/7/10-]

C#[-----------------------------------------------------------------]
G#[-----------------------------------------------------------------]
E [-----------------------------------------------------------------]
B [-0/0/1/0-0/0/1/0-0/0/1/0-0/0/1/0-0/0/1/0-0/0/1/0-0/0/1/0-0/0/1/0-]
F#[-0/0/1/0-0/0/1/0-0/0/1/0-0/0/1/0-0/0/1/0-0/0/1/0-0/0/1/0-0/0/1/0-]
B [-0/0/1/0-0/0/1/0-0/0/1/0-0/0/1/0-0/0/1/0-0/0/1/0-0/0/1/0-0/0/1/0-]
    ...................................

Chorus

Both Guitars
C#[----------------------------------------------]
G#[------------------------10--------------------]
E [----------------------------------7-----------]
B [---0-1/0/0----0/1/0/1/0---0-1/0/0---0/1/0/1/0-]
F#[---0-1/0/0----0/1/0/1/0---0-1/0/0---0/1/0/1/0-]
B [---0-1/0/0----0/1/0/1/0---0-1/0/0---0/1/0/1/0-]

C#[----------------------------------------------]
G#[--9---------------------10--------------------]
E [------------7---------------------7-----------]
B [---0-1/0/0----0/1/0/1/0---0-1/0/0---0/1/0/1/0-]
F#[---0-1/0/0----0/1/0/1/0---0-1/0/0---0/1/0/1/0-]x3
B [---0-1/0/0----0/1/0/1/0---0-1/0/0---0/1/0/1/0-]

Interlude

Gtr. 1
C#[------]
G#[------]
E [-10b--]
B [--xb--]
F#[--8b--]
B [------]

Gtr. 2
C#[------]
G#[------]
E [-12b--]
B [--xb--]
F#[-10b--]

Verse 2

C#[------------------------------]
G#[------------------------------]
E [------------------------------]
B [-12p0/0-12p0/0/12p0/0-12p0/13-]
F#[-12p0/0-12p0/0/12p0/0-12p0/13-]
B [-12p0/0-12p0/0/12p0/0-12p0/13-]
    ............................
C#[------------------------------]
G#[------------------------------]
E [------------------------------]
B [-12p0/0-12p0/0/12p0/0-12p0/13-]
F#[-12p0/0-12p0/0/12p0/0-12p0/13-]
B [-12p0/0-12p0/0/12p0/0-12p0/13-]
    .................
C#[------------------------------]
G#[------------------------------]
E [------------------------------]
B [-12p0/0-12p0/0/12p0/0-12p0/13-]
F#[-12p0/0-12p0/0/12p0/0-12p0/13-]x2
B [-12p0/0-12p0/0/12p0/0-12p0/13-]

Pre-Chorus

Chorus 2
C#[----------------------------------------------]
G#[------------------------10--------------------]
E [----------------------------------7-----------]
B [---0-1/0/0----0/1/0/1/0---0-1/0/0---0/1/0/1/0-]
F#[---0-1/0/0----0/1/0/1/0---0-1/0/0---0/1/0/1/0-]
B [---0-1/0/0----0/1/0/1/0---0-1/0/0---0/1/0/1/0-]

C#[-----------------------------------------]
G#[--9---------------------10---------------]
E [------------7----------------------------]
B [---0-1/0/0----0/1/0/1/0---0-1/0/0--1-8-1-]
F#[---0-1/0/0----0/1/0/1/0---0-1/0/0--1-8-1-]
B [---0-1/0/0----0/1/0/1/0---0-1/0/0--1-8-1-]

C#[----------------------------------------------]
G#[--9---------------------10--------------------]
E [------------7---------------------7-----------]
B [---0-1/0/0----0/1/0/1/0---0-1/0/0---0/1/0/1/0-]
F#[---0-1/0/0----0/1/0/1/0---0-1/0/0---0/1/0/1/0-]
B [---0-1/0/0----0/1/0/1/0---0-1/0/0---0/1/0/1/0-]

C#[-------------------------------------------]
G#[--9---------------------10-----------------]
E [------------7------------------------------]
B [---0-1/0/0----0/1/0/1/0---0-1/0/0--1-8-1-0-]
F#[---0-1/0/0----0/1/0/1/0---0-1/0/0--1-8-1-0-]
B [---0-1/0/0----0/1/0/1/0---0-1/0/0--1-8-1-0-]

Bridge

Gtr. 1
C#[------------------]
G#[------------------]
E [------------------]
B [-7----8----8----7-]
F#[-5----5----4----4-]
B [------------------]x2

Then

Gtr. 2
C#[------------------]
G#[------------------]
E [------------------]
B [-7----8----8----7-]
F#[-5----5----4----4-]x2
B [------------------]
   ..................
Gtr. 1
B [-7----8----8----7-]
F#[-5----5----4----4-]x2
Then

Gtr. 2
C#[------------------]
G#[------------------]
E [------------------]
B [-7----8----8----7-]
F#[-5----5----4----4-]
B [------------------]x2

Gtr. 1
C#[------------------------------------------------]
G#[------------------------------------------------]
E [-7/9/10/9/7---7/9/10/9/7---9/10--9/10--6/9--6/9-]
B [-----------7------------7-----------------------]
F#[------------------------------------------------]
B [------------------------------------------------]x2

Then

Gtr. 1
C#[-------------------------]
G#[-------------------------]
E [-13/13/13/13/13/13/13/13-]
B [--x--x--x--x--x--x--x--x-]
F#[-11/11/11/11/11/11/11/11-]
B [-------------------------]

Chorus 3

C#[----------------------------------------------]
G#[--9---------------------10--------------------]
E [------------7---------------------7-----------]
B [---0-1/0/0----0/1/0/1/0---0-1/0/0---0/1/0/1/0-]
F#[---0-1/0/0----0/1/0/1/0---0-1/0/0---0/1/0/1/0-]x3
B [---0-1/0/0----0/1/0/1/0---0-1/0/0---0/1/0/1/0-]

C#[--------------------------------------]
G#[--9---------------------10------------]
E [------------7---------------------7S<-]
B [---0-1/0/0----0/1/0/1/0---0-1/0/0-----]
F#[---0-1/0/0----0/1/0/1/0---0-1/0/0-----]
B [---0-1/0/0----0/1/0/1/0---0-1/0/0-----]



----------------------------------------------------------------------------

Band: Demon Hunter
Song: One Thousand Apologies
Album: The Tryptch
Tabber: MajinGaara
Tunning: Drop B (B-F#-B-E-G#-C#)

Note: From now on in my tabs ill add the notes of the guitar in,
Or whatever tunning the guitars are in, for example:
C#---
G#---
E----
B----
F#---
B----
This will be used on every riff to make easier,
I will also add lyrics to the songs at the bottom if the lyrics
are availible. Thank you UG!
==========================================================================
The bands new single!
I already have a tabbed intro but Im now adding the whole song for everyone
tabbed. Here it is its 100% correct to. Enjoy!

TAB NOTICE:
-There will be parts that say the name and continued, that basically just means I didnt
the space to type in all the tab so i had to start using other bars but you just keep
the riff
============
- Also, I have added the lyrics to the riffs so If you get lost you can see what parts
with what. Thought that might Help :)
============
- During the Chorus Ethan plays a 2 leads, he plays one then the other then he repeats
in the same order, This is all he does for the chorus as for don he just plays the one
indicated.
============

v = Vibrato
. = Palm Mute
^ = 1/2 step bend ONLY
* = Pinched Harmonic
(*v = vibrato applied to a pinched harmonic)

INTRO
Guitar 1: Ethan - Lead
C#--5-----------5----------5----------------------

G#-----5^-3-5-----5^-3-5-----5^-3-5---------------

E------------------------------------5-4/5\4-2-4v-

B-------------------------------------------------

F#------------------------------------------------

B-------------------------------------------------


C#--5-----------5----------5-----------------------

G#-----5^-3-5-----5^-3-5-----5^-3-5----------------

E------------------------------------5-4/5\4-2-----

B----------------------------------------------5*v-

F#-------------------------------------------------

B--------------------------------------------------


Guitar 2: Don - Rythem (When Sliding up to the 14, strum it,
then slide down to the 3, Let the 5 ring and hold it)
C#----------------------------------------------------

G#----------------------------------------------------

E-----------------------------------------------------

B--7-7-7-7-7-10-10-10-10-10-/14-\-3-3-3-3-3-3-3-3-3-5-

F#-7-7-7-7-7-10-10-10-10-10-/14-\-3-3-3-3-3-3-3-3-3-5-

B--7-7-7-7-7-10-10-10-10-10-/14-\-3-3-3-3-3-3-3-3-3-5-
 X2

INTERLUDE
Both Guitars:
C#--------------

G#--------------

E---------------

B--7-7-7--7-7-7-

F#-7-7-7--7-7-7-

B--7-7-7--7-7-7-


VERSE:
Both Guitars:
"There You stood in disbelief, Trying all you could to see.."
C#----------------------------------------------------------------------

G#----------------------------------------------------------------------

E-----------------------------------------------------------------------

B--------5-5-5-------5-5-5-----5-5-5------------------------------------

F#-0-0-0-------0-0-0------0-0-0-----------5-5-5-------5-5-5-------5-5-5-

B------------------------------------5-5-5------5-5-5-------5-5-5-------


VERSE Continued:
C#---------------------------------------------------------------------

G#---------------------------------------------------------------------

E----------------------------------------------------------------------

B--------2-2-2-------2-2-2-------2-2-2---------------------------------

F#-------------------------------------------5-5-5-------5-5-5-3-3-3-3-

B--2-2-2-------2-2-2-------2-2-2-------3-3-3-------3-3-3---------------
 X2

VERSE END
Both Guitars:
"And knowing what Ive done to you, With everybody suffered through..."
C#----------------------------------------------------------------

G#----------------------------------------------------------------

E-----------------------------------------------------------------

B--7-7-7--7-7-7--7-7-7--5-5-5--5-5-5--5-5-5--2-2-2--2-2-2--2-2-2--

F#-7-7-7--7-7-7--7-7-7--5-5-5--5-5-5--5-5-5--2-2-2--2-2-2--2-2-2--

B--7-7-7--7-7-7--7-7-7--5-5-5--5-5-5--5-5-5--2-2-2--2-2-2--2-2-2--


VERSE END Continued:
C#----------------------

G#----------------------

E-----------------------

B--3-3-3--3-3-3--3-3-3--

F#-3-3-3--3-3-3--3-3-3--

B--3-3-3--3-3-3--3-3-3--
 X2

PRE CHORUS
Both Guitars:
"All the delicate ways, That I deepened our graves..."
C#-------------------------------------------------------------

G#-------------------------------------------------------------

E--------------------------------------------------------------

B--------------------------------------------------------------

F#-------------------------------------------------------------

B--5-5-5-5-5-5-5-5-5-5-5-5-7-7-7-3-3-3-3-3-3-3-3-3-3-3-3-7-7-7-


PRE CHORUS Continued:
C#----------------------------------------------------------

G#----------------------------------------------------------

E-----------------------------------------------------------

B-----------------------------------------------------------

F#----------------------------------------------------------

B--2-2-2-2-2-2-2-2-2-2-2-2-7-7-7-3-3-3-3-3-3-3-3-3-3-3-3-3--


CHORUS
Guitar 1: Ethan - Lead
(Listen to song for the Rythem)
"Oh, The pain in your eyes, My regrets have never known.."
C#-15-15-15-15-------------15-15-15-15---------------------------

G#-------------13-13-13-13------------13-13-13-13--10-12-13-12-8-

E----------------------------------------------------------------

B----------------------------------------------------------------

F#---------------------------------------------------------------

B----------------------------------------------------------------


C#-15-15-15-15-------------15-15-15-15----------------------------

G#-------------13-13-13-13------------13-13-13-13--10-12-13-12-10-

E-----------------------------------------------------------------

B-----------------------------------------------------------------

F#----------------------------------------------------------------

B-----------------------------------------------------------------
 X2

Guitar 2: Don - Rythem)
C#----------------------------------------------------

G#----------------------------------------------------

E-----------------------------------------------------

B--7-7-7-7-7-10-10-10-10-10-/14-\-3-3-3-3-3-3-3-3-3-5-

F#-7-7-7-7-7-10-10-10-10-10-/14-\-3-3-3-3-3-3-3-3-3-5-

B--7-7-7-7-7-10-10-10-10-10-/14-\-3-3-3-3-3-3-3-3-3-5-
 X4

Play INTERLUDE

Play VERSE X2

Play VERSE END X2

Play PRE CHORUS

Play CHORUS X2

BRIDGE
Both Guitars:
BG Voice: "Just what do you think you're doing..."
C#----------------------------------

G#----------------------------------

E-----------------------------------

B--2-----5--2-----5--2-----5--2-----

F#-2-----3--2-----3--2-----3--2-----

B--2--------2--------2--------2-----


Guitar 1: Ethan - Lead
(For this measure: ^^ = A gradual 1 step bend and back down)
(For this measure: ^ = 1/2 step bend)
C#----------------------------------

G#-8p0-7^^-8p0-7^^-8p0-7^^-8p0-10^--

E-----------------------------------

B-----------------------------------

F#----------------------------------

B-----------------------------------
 X2

C#-----------------------------------------------------------------

G#-8-0-8-0-8-0-8-0-10-0-10-0-10-0-10-0-7-0-7-0-7-0-7-0-7-0-7-0-----

E--------------------------------------------------------------9*^-

B------------------------------------------------------------------

F#-----------------------------------------------------------------

B------------------------------------------------------------------


(For this measure, at the end gradualy bend it to a whole step
and bring it back down fast. Listen to song to see how it is done)
C#-----------------------------------------------------------------

G#-8-0-8-0-8-0-8-0-10-0-10-0-10-0-10-0-7-0-7-0-7-0-7-0-------------

E------------------------------------------------------9*^---------

B------------------------------------------------------------------

F#-----------------------------------------------------------------

B------------------------------------------------------------------


Guitar 2: Don - Rythem
The last time through at the end right before the 10 there will
be a breif pause, then you strum the 10)
C#-----------------------------------------------------------------

G#-----------------------------------------------------------------

E------------------------------------------------------------------

B-------------------------------------------------------------10---

F#-2-2-2-2-2-2-2-2-2-2-2-2-2-2-2-2-2-2-2-2-2-2-2-2-2-2-2-2-2--10---

B--2-2-2-2-2-2-2-2-2-2-2-2-2-2-2-2-2-2-2-2-2-2-2-2-2-2-2-2-2--10---
 X4
   . . . . . . . . . . . . . . . . . . . . . . . . . . . . .

PRE-CHORUS
(Guitar 1 plays this until you hit the first 7 note then both
guitars kick in and play)
"All the delicate ways, That I deepened our graves..."
C#-------------------------------------------------------------

G#-------------------------------------------------------------

E--------------------------------------------------------------

B--------------------------------------------------------------

F#-------------------------------------------------------------

B--5-5-5-5-5-5-5-5-5-5-5-5-7-7-7-3-3-3-3-3-3-3-3-3-3-3-3-7-7-7-


PRE CHORUS Continued:
C#----------------------------------------------------------

G#----------------------------------------------------------

E-----------------------------------------------------------

B-----------------------------------------------------------

F#----------------------------------------------------------

B--2-2-2-2-2-2-2-2-2-2-2-2-7-7-7-3-3-3-3-3-3-3-3-3-3-3-3-3--


Play CHORUS X2

Ending:
(make sure right after you finish the last chorus riff you immediatly hit
the pinched harmonic; Guitar 1 does the pinched harmonic only)
Both Guitars:
C#------------------

G#------------------

E-------------------

B--5*v-7-7-7--7-7-7-

F#-----7-7-7--7-7-7-

B------7-7-7--7-7-7-



----------------------------------------------------------------------------

Science of LIes
Demon hunter
Drop B Tuning
B-F#-B-E-G#-C#
I found this tab on a christian tab site,
and it was really good, so i want to put it
on ultimate-guitar. i give props to adam k for this.

S>=slide up
palm mute=..., etc.
h=hammer on
p=pull off

Intro
C#[----------------------]
G#[----------------10----]
E [-----11-----------8-8-]
B [-1-0--x-0/0-S>0----7--]
F#[-1-0--9-0/0-S>0-------]x3
B [-1-0----0/0-S>0-------]

C#[---------------------------------------]
G#[---------------13/13/13/13/13/13/13/13-]
E [-----11---------x--x--x--x--x--x--x--x-]
B [-1-0--x-0/0-S>-11/11/11/11/11/11/11/11-]
F#[-1-0--9-0/0-S>-------------------------]
B [-1-0----0/0-S>-------------------------]
Repeat Intro


Verse 1
C#[-----------------]
G#[-----------------]
E [-7-------------8-]
B [-7--6----7--6--7-]
F#[-5--6----7--6--6-]
B [----6----7--6----]
   ..............

Then
C#[----------------]
G#[----------------]
E [-7--------------]
B [-7--6----7--6---]
F#[-5--6----7--6---]x3
B [----6----7--6---]
   ..............

Then
Gtr. 2
C#[----------------]
G#[----------------]
E [-7--------------]
B [-7--6----7--1---]
F#[-5--6----7--1---]x2
B [----6----7--1---]

Gtr. 1
C#[------------------------------------]
G#[------------------------------------]
E [----10---10--8--8--8--9--9--8--8--8-]
B [-0/7--0/7---6--6--6--7--7--8--8--8--]x2
F#[-----------6--6--6--7--7--6--6--6---]
B [------------------------------------]

Chorus
Gtr. 2
C#[------------------------]
G#[------------------------]
E [------------------------]
B [-5--5--1--3---6----6----]
F#[-5--6--1--3---4----3----]
B [-5--5--1--3---4----3----]

C#[--------------------------------------]
G#[--------------------------------------]
E [--------------------------------------]
B [-5--5--1--3---6----6--000-6----6--000-]
F#[-5--6--1--3---4----3--000-4----3--000-]
B [-5--5--1--3---4----3--000-4----3--000-]
                         ...         ...

Post-Chorus
Gtr. 1
C#[-------]
G#[-10----]
E [---8-8-]
B [----7--]
F#[-------]
B [-------]


Then
Both guitars
C#[----------------------]
G#[----------------10----]
E [-----11-----------8-8-]
B [-1-0--x-0/0-S>0----7--]
F#[-1-0--9-0/0-S>0-------]x3
B [-1-0----0/0-S>0-------]

C#[---------------------------------------]
G#[---------------13/13/13/13/13/13/13/13-]
E [-----11---------x--x--x--x--x--x--x--x-]
B [-1-0--x-0/0-S>-11/11/11/11/11/11/11/11-]
F#[-1-0--9-0/0-S>-------------------------]
B [-1-0----0/0-S>-------------------------]

Verse 2
C#[-----------------]
G#[-----------------]
E [-7-------------8-]
B [-7--6----7--6--7-]
F#[-5--6----7--6--6-]
B [----6----7--6----]
   ..............

C#[----------------]
G#[----------------]
E [-7--------------]
B [-7--6----7--6---]
F#[-5--6----7--6---]
B [----6----7--6---]
   ..............

Then
Gtr. 2
C#[----------------]
G#[----------------]
E [-7--------------]
B [-7--6----7--1---]
F#[-5--6----7--1---]x4
B [----6----7--1---]

Gtr. 1
C#[------------------------------------]
G#[------------------------------------]
E [----10---10--8--8--8--9--9--8--8--8-]
B [-0/7--0/7---6--6--6--7--7--8--8--8--]x4
F#[-----------6--6--6--7--7--6--6--6---]
B [------------------------------------]
Chorus

Bridge
Gtr. 2
C#[----------------------------------------------------]
G#[----------------------------------------------------]
E [----------------------------------------------------]
B [-0-0/0-0/0/0--0-0/0-0/0/0--0-0/0-0/0/0--0-0/0-0/0/0-]
F#[-0-0/0-0/0/0--0-0/0-0/0/0--0-0/0-0/0/0--0-0/0-0/0/0-]x2
B [-0-0/0-0/0/0--0-0/0-0/0/0--0-0/0-0/0/0--0-0/0-0/0/0-]
    . ... .....  . ... .....  . ... .....  . ... .....

Then
(Notice there's an extra guitar here.)
Gtr. 2
C#[----------------------------------------------------]
G#[----------------------------------------------------]
E [----------------------------------------------------]
B [-0-0/0-0/0/0--0-0/0-0/0/0--0-0/0-0/0/0--0-0/0-0/0/0-]
F#[-0-0/0-0/0/0--0-0/0-0/0/0--0-0/0-0/0/0--0-0/0-0/0/0-]x2
B [-0-0/0-0/0/0--0-0/0-0/0/0--0-0/0-0/0/0--0-0/0-0/0/0-]
    . ... .....  . ... .....  . ... .....  . ... .....

Gtr. 1
C#[----------------------]
G#[----------------------]
E [-10-7--8-5--7-3--5-2--]x2
B [----------------------]
F#[----------------------]
B [----------------------]

Gtr. 3
C#[---------------------]
G#[---------------------]
E [-7-------------------]
B [---7--8-5--7-3--5-2--]x2
F#[---------------------]
B [---------------------]

Then
Gtr. 2
C#[----------------------------------------------------]
G#[----------------------------------------------------]
E [----------------------------------------------------]
B [-0-0/0-0/0/0--1-1/1-1/1/1--3-3/3-3/3/3--1-1/1-1/1/1-]
F#[-0-0/0-0/0/0--1-1/1-1/1/1--3-3/3-3/3/3--1-1/1-1/1/1-]x4
B [-0-0/0-0/0/0--1-1/1-1/1/1--3-3/3-3/3/3--1-1/1-1/1/1-]
    . ... .....  . ... .....  . ... .....  . ... .....

Gtr. 1
C#[-------------------------------------------]
G#[-5/6-5/6-5-5/6-5/6-5-5/6-5/6-5-5/6-5h6p5-5-]
E [-------------------------------------------]
B [-------------------------------------------]
F#[-------------------------------------------]
B [-------------------------------------------]

C#[--------------------------------------------]
G#[-5/6-5/6-5-5/6-5/6-6-5/6-5/6-5-5/6-5h6p5----]
E [----------------------------------------7p5-]
B [--------------------------------------------]
F#[--------------------------------------------]
B [--------------------------------------------]

C#[--5--------------8h10p8------------------------11-]
G#[-6--8-6p5--------------11p10/11p10---------8/11---]
E [---------7p5---8------------------12p10-7h8-------]
B [------------7h8-----------------------------------]
F#[--------------------------------------------------]
B [--------------------------------------------------]

(Really fast)
C#[-10/10/10-------10/10/10-------11/11/11--------11/11/11---------]
G#[--------10/10/10-------10/10/10--------11/11/11--------11/11/11-]
E [----------------------------------------------------------------]
B [----------------------------------------------------------------]
F#[----------------------------------------------------------------]
B [----------------------------------------------------------------]

C#[-10/10/10--------10/10/10--------11/11/11--------11/11/11---------]
G#[---------12/12/12--------12/12/12--------11/11/11--------11/11/11-]
E [------------------------------------------------------------------]
B [------------------------------------------------------------------]
F#[------------------------------------------------------------------]
B [------------------------------------------------------------------]

Then
Gtr. 2
C#[-----------------------------------]
G#[-----10--------10--------10--------]
E [-------8-8-------8-8-------8-8-----]
B [-0/0----7--0/0----7--0/0----7--0/0-]
F#[-0/0-------0/0-------0/0-------0/0-]
B [-0/0-------0/0-------0/0-------0/0-]

Then both guitars
C#[-------------------------------------]
G#[-10--------10--------10--------10----]
E [---8-8-------8-8-------8-8-------8-8-]
B [----7--0/0----7--0/0----7--0/0----7--]
F#[-------0/0-------0/0-------0/0-------]
B [-------0/0-------0/0-------0/0-------]

Chorus

Well there ya go. its pretty good. leave comments.

----------------------------------------------------------------------------


Demon Hunter-Snap Your Fingers, Snap Your Neck
From:The Triptych
Drop B Tuning B-F#-B-E-G#-C#

palm mute=..., etc.
Slide down=S<
p=pull off
v=vibrato
h=hammer on
s=slide

Intro
Bass for awhile
Then
E [--------------6-----------------6--------]
B [-4-3-0--------x--------0--------x--------]
F#[-4-3-0--------4--------0--------4--------]
B [-4-3-0-----------------0-----------------]
    . .
Then
B [-S<-0-33/0--0-0-0/33/0--0-0-0/33/0--0-0-0/33/0--0-0/0-]
F#[-S<-0-33/0--0-0-0/33/0--0-0-0/33/0--0-0-0/33/0--0-0/0-]
B [-S<-0-33/0--0-0-0/33/0--0-0-0/33/0--0-0-0/33/0--0-0/0-]
       .       . . .       . . .       . . .       . ...
B [-0-33/0--0-0-0/33/0--0-0-0/33/0--0-0-0/33/0--4-3-0--S<-]
F#[-0-33/0--0-0-0/33/0--0-0-0/33/0--0-0-0/33/0--4-3-0--S<-]
B [-0-33/0--0-0-0/33/0--0-0-0/33/0--0-0-0/33/0--4-3-0--S<-]
    .       . . .       . . .       . . .       . .

Verse 1
Bass for awhile
Then
B [-S<-0-33/0-]
F#[-S<-0-33/0-]
B [-S<-0-33/0-]
       .
Bass again
Then
B [-S<-0-33/0-]
F#[-S<-0-33/0-]
B [-S<-0-33/0-]
       .

Pre-Chorus
F#[-S<-------------------5v-]
B [-S<-0-6p0/5/00/6p0/5/0---]x4

Chorus
E [-5-5-----------------------]
B [-5-5--1-1--0-0-0-0-0-0-0-0-]
F#[-3-3--1-1--0-0-0-0-0-0-0-0-]x4
B [------1-1--0-0-0-0-0-0-0-0-]

Post-Chorus
B [-S<-0-33/0--0-0-0/33/0--0-0-0/33/0--0-0-0/33/0--0-0/0-]
F#[-S<-0-33/0--0-0-0/33/0--0-0-0/33/0--0-0-0/33/0--0-0/0-]
B [-S<-0-33/0--0-0-0/33/0--0-0-0/33/0--0-0-0/33/0--0-0/0-]
       .       . . .       . . .       . . .       . ...
B [-0-33/0--0-0-0/33/0--0-0-0/33/0--0-0-0/33/0--0-0/0-]
F#[-0-33/0--0-0-0/33/0--0-0-0/33/0--0-0-0/33/0--0-0/0-]
B [-0-33/0--0-0-0/33/0--0-0-0/33/0--0-0-0/33/0--0-0/0-]
    .       . . .       . . .       . . .       . ...

Verse 2
F#[-3h5/5555555555-3h5/5555555555-3h5/5555555555-3h5/5555555555-]x4
        ..........     ..........     ..........     ..........

Chorus

Interlude
F#[-S<-------------------5v-]
B [-S<-0-6p0/5/00/6p0/5/0---]x4

Bridge
Gtr. 2
B [-0-33/0--0-0-0/33/0--0-0-0/33/0--0-0-0/33/0--0-0/0-]
F#[-0-33/0--0-0-0/33/0--0-0-0/33/0--0-0-0/33/0--0-0/0-]x2
B [-0-33/0--0-0-0/33/0--0-0-0/33/0--0-0-0/33/0--0-0/0-]
    .       . . .       . . .       . . .       . ...
Gtr. 1
E [-5--8-7----5--8-7-]
B [-x--x-x----x--x-x-]x2
F#[-3--6-5----3--6-5-]
Then
Gtr. 2
E [-5-5-----------------------]
B [-5-5--1-1--0-0-0-0-0-0-0-0-]
F#[-3-3--1-1--0-0-0-0-0-0-0-0-]x4
B [------1-1--0-0-0-0-0-0-0-0-]
Gtr. 1
G#[----5-----5-----7-----7------5-----5----------]
E [-4h5-5/5/5-5s7/7-7/7/7-7--5/5-5/5/5--5--------]
B [--------------------------------------5/5/5/4-]

E[------------------------------------------------7/7/7/7/7/7/7/7-]
B[-5/5/5/4/4/4/5/5/5/4/4/4/5/5/4/4-4h5/5/5/5s7/7/7----------------]

Chorus x2

Ending
B [---------0-0-0/33/0--0-0-0/33/0--0-0-0/33/0--0-0/0-]
F#[---------0-0-0/33/0--0-0-0/33/0--0-0-0/33/0--0-0/0-]
B [-0-33/0--0-0-0/33/0--0-0-0/33/0--0-0-0/33/0--0-0/0-]
            . . .       . . .       . . .       . ...
B [-0-33/0--0-0-0/33/0--0-0-0/33/0--0-0-0/33/0--0-0-0-]
F#[-0-33/0--0-0-0/33/0--0-0-0/33/0--0-0-0/33/0--0-0-0-]
B [-0-33/0--0-0-0/33/0--0-0-0/33/0--0-0-0/33/0--0-0-0-]
    .       . . .       . . .       . . .




----------------------------------------------------------------------------

Demon Hunter-Ribcage
From:The Triptych
Drop B Tuning B-F#-B-E-G#-C#

palm mute=..., etc.
S>=slide up
s=slide
h=hammer on
v=vibrato
p=pull off

Intro
E [----------------8---5s8/5s8-----------------8---5s8/5s7-]
B [-0/00/00--1S>-0-x-0-xsx/xsx--0/00/00--1S>-0-x-0-xsx/xsx-]
F#[-0/00/00--1S>-0-6-0-3s6/3s6--0/00/00--1S>-0-6-0-3s6/3s5-]x3 or 4?
B [-0/00/00--1S>-0---0----------0/00/00--1S>-0---0---------]
    . .. ..                     . .. ..
Verse 1
Gtr. 2
B [-0/00/00--0/00/00--0/00/00--0/00/00-]
F#[-0/00/00--0/00/00--0/00/00--0/00/00-]x2
B [-0/00/00--0/00/00--0/00/00--0/00/00-]
    . .. ..  . .. ..  . .. ..  . .. ..
Then
Gtr. 2
B [-0/00/00--0/00/00--0/00/00--0/00/00-]
F#[-0/00/00--0/00/00--0/00/00--0/00/00-]x2
B [-0/00/00--0/00/00--0/00/00--0/00/00-]
    . .. ..  . .. ..  . .. ..  . .. ..
Gtr. 1
B [-7-------------7-------7-------------7------]
F#[--8/7h8/7h8/7h8-8/7h8---8/7h8/7h8/7h8-8/7h8-]x2

Pre-Chorus
Both guitars
B [-0/0/0-1S>-0--0/0/0-1S>-0-]
F#[-0/0/0-1S>-0--0/0/0-1S>-0-]x4
B [-0/0/0-1S>-0--0/0/0-1S>-0-]

Chorus
E [-----7-----7-7------7-----10/10/10-]
B [-0-0-8-0/0-8-8--0-0-8-0/0-10/10/10-]
F#[-0-0-5-0/0-5-5--0-0-5-0/0--8--8--8-]x3
B [-0-0---0/0------0-0---0/0----------]

E [-----7-----7-7------7---------------------]
B [-0-0-8-0/0-8-8--0-0-8-0/0-3/3/3/3/3/3/3/3-]
F#[-0-0-5-0/0-5-5--0-0-5-0/0-3/3/3/3/3/3/3/3-]
B [-0-0---0/0------0-0---0/0-3/3/3/3/3/3/3/3-]

Interlude
B [-3h5/5-3h5/5-3h5-]
F#[-3h5/5-3h5/5-3h5-]
B [-3h5/5-3h5/5-3h5-]

Verse 2
Gtr. 2
E [-------------7v--------------7v-------------------------------]
B [-0/00/00-3h5-----0/00/00-3h5----0/00/00-3h5/5-3h5/5-3h5-3h5/5-]
F#[-0/00/00-3h5-----0/00/00-3h5----0/00/00-3h5/5-3h5/5-3h5-3h5/5-]x2
B [-0/00/00-3h5-----0/00/00-3h5----0/00/00-3h5/5-3h5/5-3h5-3h5/5-]
    . .. ..         . .. ..        . .. ..
Then
Gtr. 2
E [-------------7v--------------7v-------------------------------]
B [-0/00/00-3h5-----0/00/00-3h5----0/00/00-3h5/5-3h5/5-3h5-3h5/5-]
F#[-0/00/00-3h5-----0/00/00-3h5----0/00/00-3h5/5-3h5/5-3h5-3h5/5-]x2
B [-0/00/00-3h5-----0/00/00-3h5----0/00/00-3h5/5-3h5/5-3h5-3h5/5-]
    . .. ..         . .. ..        . .. ..
Gtr. 1
B [-7-------------7-------7-------------7------]
F#[--8/7h8/7h8/7h8-8/7h8---8/7h8/7h8/7h8-8/7h8-]x2

Pre-Chorus

Chorus

Bridge
Starts with
B [--0--]
F#[--0--]
B [--0--]
Then
    Gtr.2-- Gtr.1-- Gtr.2-- Gtr.1------]
B [-0/00/00-0/00/00-0/00/00-0-8-0-8----]
F#[-0/00/00-0/00/00-0/00/00-0---0------]x4
B [-0/00/00-0/00/00-0/00/00-0---0------]
    . .. .. . .. .. . .. .. .   .
Then
Gtr. 2
B [-10---3---5---0---]
F#[--8---3---5---0---]x2
B [--8---3---5---0---]
Then
Gtr. 2
B [-10---3---5---0---]
F#[--8---3---5---0---]x2
B [--8---3---5---0---]
Gtr.1
C#[-------------------------------------------------------------8v-]
G#[----------------------------------------------------------------]
E [----------------------------------------------------------------]
B [-7/5/3/5/3/2/3p2p0-7/5/3/5/3/2/3/0-7/5/3/5/3/2/3p2p0-7/5/3/5----]
        .     .           .     .         .     .           .
E [----------------------------------------------------------------------]
B [-7/5/3/5/3/2/3p2p0-7/5/3/5/3/2/3/0-7/5/3/5/3/2/3p2p0-7p5p0/7h10/10h12-]
        .     .           .     .         .     .

Interlude
Gtr. 2
B [-3h5/5-3h5/5-3h5-]
F#[-3h5/5-3h5/5-3h5-]
B [-3h5/5-3h5/5-3h5-]
Then both guitars
B [-3h5/5-3h5/5-3h5-]
F#[-3h5/5-3h5/5-3h5-]
B [-3h5/5-3h5/5-3h5-]

Chorus

Ending
E [----------------8---5s8/5s8-----------------8---5s8/5s7-]
B [-0/00/00--1S>-0-x-0-xsx/xsx--0/00/00--1S>-0-x-0-xsx/xsx-]
F#[-0/00/00--1S>-0-6-0-3s6/3s6--0/00/00--1S>-0-6-0-3s6/3s5-]x2
B [-0/00/00--1S>-0---0----------0/00/00--1S>-0---0---------]
    . .. ..                     . .. ..



----------------------------------------------------------------------------
ATTENTION!!!!!!!!! FOR "THE TIDE BEGAN TO RISE" I PUT THE CHORDS TAB AND THE REGULAR TAB
----------------------------------------------------------------------------

Demon Hunter-The Tide Began To Rise
From:The Triptych
Dropped Standard Tuning D-G-C-F-A-D
All chords relative to tuning.

Em=0-2-2-0-0-0---]
D=x-x-0-2-3-2----]
G=3-2-0-0-3-3----]
D/F#=2-0-0-2-3-0-]
C=x-3-2-0-1-0----]
Am=x-0-2-2-1-0---]
F=1-3-3-2-1-1----]
C/B=x-2-0-0-3-0--]

Intro
Piano
then
Em    D

Verse 1
Em    D
Em    G D/F# D C
Em    D

Pre-Chorus
C  Am  F

Chorus
Am Em F G x3
then
F  G

Post-Chorus
Em    D

Verse 2
(Same as Verse 1)

Pre-Chorus

Chorus

Bridge/Outro
Piano
then
C  C/B  C  Em  F x7
Fade out on the 7th time.



----------------------------------------------------------------------------

Artist: Demon Hunter

Tuning: Drop D
Tabber: guitarfreak328

-This song is a little different from the album version.
-I didn’t exactly do the rhythm but you can find it no problem.
-I don’t have the other guitar tabbed out yet. But it’s pretty simple. All it is, is strumming.

Guitar 1:
E
----------------------------------------------------------------

B
----------------------------------------------------------------

G
-7---7-9-7-9-10---7---7-9-7-9-10--5---5-7-5-7-9---5---5-7-5-7-9-
 2x
D
---7----------------7---------------5---------------5-----------

A
----------------------------------------------------------------

D
----------------------------------------------------------------



----------------------------------

-2-2-2-2-2-2-2-2--1-1-1-1-1-1-1-1-

-3-3-3-3-3-3-3-3--0-0-0-0-0-0-0-0-

-0-0-0-0-0-0-0-0--2-2-2-2-2-2-2-2-

----------------------------------

----------------------------------



--------------------------------------------

--------------------------------------------

-7---7-9-7-9-10---7---7-9-7-9-10—-----------

---7----------------7-------------8-7—-10-8-

----------------------------------8-7—-10-8-

----------------------------------8-7—-10-8-



----------------------------------------------------------------

----------------------------------------------------------------

-7---7-9-7-9-10---7---7-9-7-9-10--5---5-7-5-7-9---5---5-7-5-7-9-

---7----------------7---------------5---------------5-----------

----------------------------------------------------------------

----------------------------------------------------------------



-----------------------------------

-----------------------------------

-------------------5-5-5-5-5-5-5-5-

-9-9-9-9--3-3-3-3--5-5-5-5-5-5-5-5-

-9-9-9-9--3-3-3-3--3-3-3-3-3-3-3-3-

-9-9-9-9--3-3-3-3------------------



----------------------------------

----------------------------------

-5/7-7--5-5-5-5--3-3-3-3--1-1-1-1-

-5/7-7--5-5-5-5--3-3-3-3--1-1-1-1-

-3/5-5--3-3-3-3--1-1-1-1--3-3-3-3-

----------------------------------



-----------------------------------------

-----------------------------------------

-5/7-7--7-7-7-7-7-7-7-7--2-2-2-2-2-2-2-2-

-5/7-7--7-7-7-7-7-7-7-7--2-2-2-2-2-2-2-2-

-3/5-5--5-5-5-5-5-5-5-5--0-0-0-0-0-0-0-0-

-----------------------------------------


----------------------------------------------------------------

----------------------------------------------------------------

-7---7-9-7-9-10---7---7-9-7-9-10--5---5-7-5-7-9---5---5-7-5-7-9-

---7----------------7---------------5---------------5-----------

----------------------------------------------------------------

----------------------------------------------------------------



----------------------------------

-2-2-2-2-2-2-2-2--1-1-1-1-1-1-1-1-

-3-3-3-3-3-3-3-3--0-0-0-0-0-0-0-0-

-0-0-0-0-0-0-0-0--2-2-2-2-2-2-2-2-

----------------------------------

----------------------------------



--------------------------------------------

--------------------------------------------

-7---7-9-7-9-10---7---7-9-7-9-10—-----------

---7----------------7-------------8-7—-10-8-

----------------------------------8-7—-10-8-

----------------------------------8-7—-10-8-



----------------------------------------------------------------

----------------------------------------------------------------

-7---7-9-7-9-10---7---7-9-7-9-10--5---5-7-5-7-9---5---5-7-5-7-9-

---7----------------7---------------5---------------5-----------

----------------------------------------------------------------

----------------------------------------------------------------



-----------------------------------

-----------------------------------

-------------------5-5-5-5-5-5-5-5-

-9-9-9-9--3-3-3-3--5-5-5-5-5-5-5-5-

-9-9-9-9--3-3-3-3--3-3-3-3-3-3-3-3-

-9-9-9-9--3-3-3-3------------------



----------------------------------

----------------------------------

-5/7-7--5-5-5-5--3-3-3-3--5-5-5-5-

-5/7-7--5-5-5-5--3-3-3-3--5-5-5-5-

-3/5-5--3-3-3-3--1-1-1-1--3-3-3-3-

----------------------------------



-----------------------------------------

-----------------------------------------

-5/7-7--7-7-7-7-7-7-7-7--2-2-2-2-2-2-2-2-

-5/7-7--7-7-7-7-7-7-7-7--2-2-2-2-2-2-2-2-

-3/5-5--5-5-5-5-5-5-5-5--0-0-0-0-0-0-0-0-

-----------------------------------------



------------------------------------------------------------------------

------------------------------------------------------------------------

-7-7-7-7-5-3-5-7-5-3-7-7-7-7-7-10-10-10-10-10-12-12-10-7-7-7-7-7-5-3-5-3

-0-0-0-0-0-0-0-0-0-0-0-0-0-0-0--0—-0—-0--0—-0—-0—-0-—0—0-0-0-0-0-0-0-0-0
12x

------------------------------------------------------------------------

------------------------------------------------------------------------

 

 
 
 
HigherPraise, Higher Praise, HigherPraise, Higher Praise, HigherPraise
  15,000 Videos & Movies
  Sign Up |.Upload | LogIn?
  15,000 Videos Movies Song
/
 
 
  Higher Praise Other Sites
    HigherPraise.org/
Praise And Worship
www.higherpraise.org

HigherPraise.net
Christian Resources
www.higherpraise.net

ChristianLyrics.org

Lyrics And Chrords
www.christianlyrics.org

ChristianChordsLyrics

Lyrics And Chrords
www.christianchordslyrics.com

ChristianChordLyrics

Lyrics And Chrords
www.christianchordlyrics.com

WorshipLyrics.org
10.000 Illustrations
www.worshiplyrics.org

WorshipLyrics.net
10.000 Illustrations
www.worshiplyrics.net

PraiseLyrics.com
PowerPoint Lyrics

www.praiselyrics.com

PraiseLyrics.org
PowerPoint Lyrics

www.praiselyrics.org

1GodTube.com
Chistian Videos

www1godtube..com

OneGodTube.com
Chistian Videos

www.onegodtube..com
/
© Copyright 2014, Higher Praise™ HigherPraise™,Inc. All rights reserved. Terms of Use