Illusion Tabs by Creed

Higher Praise - Guitar Chords, Lyrics  GuitarTabs -  Praise nad Worship Music And Christian Songs

Higher Praise - Guitar Tabs, Guitar Chords, Lyrics
   Lyrics, Chords And Tabs
   Popular Lyrics Chords Tab
   Power Point Lyrics
   Praise & Worship Music
   Christian Music Videos
   15900 Videos & Audios
   Midi Files
   Worship Questions
   Christmas Chords, Lyrics
   Lyrics, Chords Tabs Rated

Sermon Outlines And Audio Sermons
   9344 Sermon Outlines
   N.T. Sermon Outlines
   O.T. Sermon Outlines
   Special Guest Outlines
   10.000 Illustrations
   Sunday School Studies
   Bible College Studies
   Greatest Preachers
   Bible Research Tools
Audio Sermons
   2895 Audio Sermons
   85 Sermon Videos
   291 Special Guests Serm

   Complete Audio Bible
Higher Praise Sunday School Teaching
   Children's NT Studies
   Children's OT Studies

   98 Children's Midis
   Gospel For Kids Movie
   Children's JESUS Film
Higher Praise Christian Video Library ,Videos
   Christian Television
   TBN TV Live
   15,000 Videos - HP Tube
   712 Youth Music Vids
  Christian Video Library
   Praise Videos #1 & #2
   85 Sermon Videos
   Prophecy Film -Videos
   JESUS Film -Video
   Childrens JESUS Film
   Gospel For Kids Movie
   Passion Of The Christ
   Noah, Sodom, Sinai, Ark
   Tsunami Videos Photos
News And Information
   Testimonies
   Submit Lyrics, Tabs, Serm
   10.000 Illustrations
   Bible College Course
   Clipart & Web Graphics
   Greatest Preachers
   Complete Talking Bible
   Christian Chat Rooms
   Links Church Resource
   HP Statement Of Faith
Download Clipart
   Audio Sermons
   Clipart & Web Graphics
   Church Administration
   Bible Study Software
   Screen Savers Software
   Verse A Day Software
   Educational Games
   Trade Center Photos

   Soft. Search Engine
Higher Praise News
   Current News
    Archived News
   Submit News
   Newsletter   Higher Praise Interact Prayer
   Prayer For All Needs
   
Submit Lyrics, Sermons
   
Contact Higher Praise
   
Advertising 
   Privacy Policy
//
He Died For You,  Click For Answer! This Is Who Jesus Is Video

'
 
0-9 A B C D E F G H I J K L M N O P Q R S T U V W X Y Z
.

//
Click For Printable...Version Of This File
 

Illusion


by Creed

Share |



this is not a creed song but its mine its rel long i wnt u to try it its



Open C6 tuning (CACGCE) low to high        


-----------0------------------------0------------------------0-

--------0--------------0---------0--------------0---------0----

-----0--------------0---------0--------------0---------0-------

-----------------0------------------------0--------------------

-/3-----------------------/3-----------------------/3----------

--------------0------------------------0-----------------------



-----------------------0------------------------0--------------

----------0---------0--------------0---------0--------------0--

-------0---------0--------------0---------0--------------0-----

----0------------------------0------------------------0--------

-------------/3-----------------------/3-----------------------

-0------------------------0------------------------0-----------


                                     p

-----------0-----------------------3-0-------------------------

--------0--------------0--2-------------2-----0-----------0----

-----0--------------0--------0-------------0-----------0-------

-----------------0--------------2-------2-----------0----------

-/3-----------------------2----------2-----------3-------------

--------------0----------------------------------------0-----0-



----------------0-----------0----------------------------------

-------5--------------------0-----------0-----------2----------

----0-----4-----------4-----0--------0-----------------0-------

-0-----------0-----------0--------0-----------0-----------2----

-------5-----------5-----------3--------------------2----------

-------------------------------------0-----0-----0-------------


   p

-3-0-----------------------------------------0-----------------

------2-----------------0-----------5--------------------0-----

---------0-----------0-----------0-----4-----------4-----------

---------------0--------------0-----------0-----------0--------

---2--------3-----3-----------------5-----------5-----------3--

---------------------0-----0-----------------------------------



----------------------------------------0----------------------

-------0--------------------0--------------0-------0-----------

----0--------------0-----------------0----------0-----------0--

-0-----------0--------0-----------0----------------------0-----

-------------------------0-----0-----------0/3-----------------

----0-----0-----0--5-----------------0----------------0--------


                                                        p

----------------------0-------------------------------3-0------

----------0--------------0-------0-----------2-------------2---

-0-----------------0----------0-----------0-----0--------------

----0-----------0----------------------0-----------2-------2---

-------0-----0-----------0/3-----------------2----------2------

-5-----------------0----------------0--------------------------



-------------------------------------0-----------0-------------

----0-----------0-----------5--------------------0-----------0-

-0-----------0-----------0-----4-----------4-----0--------0----

----------0-----------0-----------0-----------0--------0-------

-------3--------------------5-----------5-----------3----------

-------------0-----0--------------------------------------0----



---------------------------------------------------------------

--------------------0-----------2-----------4-----------0------

-------0---------0-----------0-----------4-----------0---------

----0---------0-----------2-----------4-----------4------------

----------/3-----------2-----------0-----------0-----------/3--

-0-------------------------------------------------------------



---------------------------------------------------------------

-------0-----------2-----------4-----------0------------0------

----0-----------0-----------4-----------0------------0---------

-0-----------2-----------4-----------4------------0------------

----------2-----------0-----------0-----------/3-----------2---

---------------------------------------------------------------



--------------------h-p----------h-p---------------------------

-------2/4---------4-5-4--------4-5-4--------4-----------5-----

----0-----------4------------4------------4-----------4--------

-2-----------4------------4------------4-----------4-----------

----------0------------0------------0-----------0--------------

---------------------------------------------------------------



---------------------------------------------------------------

----------4-----------4/5--------5--7--------0-------------0---

-------4-----------4----------5-----------7-------------0------

----4-----------4----------5-----------7-------------0---------

-0-----------0----------------------------------0/3------------

------------------------5---------5/7-----7--------------------



---------------------------------------------------------------

----------0-------------5--7--------0-------------0------------

-------0-------------5-----------7-------------0-----------0---

----0-------------5-----------7-------------0-----------0------

---------------------------------------0/3---------------------

-0-----------2/5---------5/7-----7-------------------0---------



---------------------------------------------------------------

-0-----------5--7--------0-------------0-----------0-----------

----------5-----------7-------------0-----------0-----------5--

-------5-----------7-------------0-----------0-----------5-----

----------------------------0/3--------------------------------

----5---------5/7-----7-------------------0-----------5--------


                                                  p

------------------------------------------------3-0------------

-5--7--------0-------------0-----------2-------------2-----0---

----------7-------------0-----------0-----0-------------0------

-------7-------------0-----------0-----------2-------2---------

----------------0/3--------------------2----------2------------

--5/7-----7-------------------0--------------------------------



-------------------------------0-----------0-------------------

----------0-----------5--------------------0-----------0-------

-------0-----------0-----4-----------4-----0--------0----------

----0-----------0-----------0-----------0--------0-----------0-

-3--------------------5-----------5-----------3----------------

-------0-----0--------------------------------------0-----0----


               p

-------------3-0------------------------------------------0----

----2-------------2------------------0-----------5-------------

-0-----0-------------0------------0-----------0-----4----------

----------2-----------------0--------------0-----------0-------

----2----------2---------3-----3-----------------5-----------5-

----------------------------------0-----0----------------------



-------0--------------------------------------------0----------

-------0-----------0--------------------0--------------0-------

-4-----0--------0--------------0-----------------0----------0--

----0--------0-----------0--------0-----------0----------------

----------3--------------------------0-----0-----------0/3-----

----------------0-----0-----0--5-----------------0-------------



----------------------------------0----------------------------

-0--------------------0--------------0-------0-----------2-----

----------0--0-----------------0----------0-----------0-----0--

-------0--------0-----------0----------------------0-----------

-------------------0-----0-----------0/3-----------------2-----

----0--------5-----------------0----------------0--------------


      p

----3-0-----------------------------------------0-----------0--

---------2-----0-----------0-----------5--------------------0--

------------0-----------0-----------0-----4-----------4-----0--

-2-------2-----------0-----------0-----------0-----------0-----

------2-----------3--------------------5-----------5-----------

------------------------0-----0--------------------------------



--------------------------------------------------------h-p----

----------0--------------------0-----------2/4---------4-5-4---

-------0-----------0--------0-----------0-----------4----------

----0-----------0--------0-----------2-----------4-------------

-3--------------------3-----------2-----------0----------------

-------0-----0-------------------------------------------------



------------------------------------------------h-p------------

----------0------------0-----------2/4---------4-5-4--------0--

-------4------------0-----------0-----------4------------4-----

----4------------0-----------2-----------4------------4--------

-0-----------/3-----------2-----------0------------0-----------

---------------------------------------------------------------



------------------------------------h-p------------------------

-----------0-----------2/4---------4-5-4-----4-----------5-----

--------0-----------0-----------4---------------------4--------

-----0-----------2-----------4------------4--------4-----------

-/3-----------2-----------0------------0--------0-----------0--

---------------------------------------------------------------



---------------------------------------------------------------

-------4-----------5-----------4/5--------5----------0---------

----4-----------4-----------4----------5----------7------------

-4-----------4-----------4----------5----------7-----------0---

----------0-----------0-------------------------------0/3------

---------------------------------5---------5/7-----------------



---------------------------------------------------------------

----0-----------0-------------5-/7-----0-----------0-----------

-0-----------0-------------5--------7-----------0-----------0--

----------0-------------5--------------------0-----------0-----

----------------------------------------0/3--------------------

-------0-----------2/5---------5/7--------------------0--------



---------------------------------------------------------------

-0-------------5-/7-----0-----------0-----------0--------------

------------5--------7-----------0-----------0-------------5---

---------5--------------------0-----------0-------------5------

-------------------------0/3-----------------------------------

----2/5---------5/7--------------------0-----------2/5---------




---------------------------------------------------------------

-5-/7--7--------------4-----------5-----------4-----------5----

----------7--------4-----------4-----------4-----------4-------

----------------4-----------4-----------4-----------4----------

-------------0-----------0-----------0-----------0-----------0-

--5/7----------------------------------------------------------



---------------------------------------------------------------

-------4-----------5-----------4-----------4-----------0-------

----4-----------4-----------4-----------4-----------0--------5-

-4-----------4-----------4-----------4-----------5--------7----

----------0-----------0-----------0-----------7----------------

---------------------------------------------------------------


        slower..

----0-----------0-----------0-----------0-----------0----------

-0-----------5-----------5-----------5-----------5-----------5-

----------7-----------7-----------7-----------7-----------7----

-------0-----------0-----------0-----------7-----------0-------

---------------------------------------------------------------

---------------------------------------------------------------


                 

-0-----------0--X-----------

----------5-----0-----------

-------7--------0-----------

----7-----------0-----------

----------------3-----------

----------------0-----------

D
-0----0----------------------

   A
--------------2--------------

 4 G
-0-h2--p0--------------0-----
    repeat 4X
 - D
-----------4-----------------

 4 A
--------------2--------------

   D
--------------------3-----0--

 
 
D
-0----0-----------------0-----
-------
-0----0----------------0-----

A
---------------2--------------
-------
-----0--------2--------------

G
-0-h2---p0--------------------
---%---
-0-h2--p0-----------0--------

D
------------4-----------------
-------
-----------4-----------------

A
---------------2--------------
-------
--------------2--------------

D
---------------------3-----0--
-------
--------------------3-----0--

 
 
D
-0----0----------------0----
----0--2/4------/4----
-----4-----5--4--2---

A
--------------2-------------
----------------------
-/5-----------0------

G
-0-h2--p0-------------------
----------------------
-----------0---------

D
-----------4----------------
----------------------
--0------------------

A
--------------2-------------
----0--4/5------/5----
---------------------

D
--------------------3-----0-
-0-----------0------0-
--------0----------0-

 
 
  D
-0--h2p0-------   
--------------0-   
--------------0--------------

  A
---------------   
---------0------   
------3----------3-------3---

2 G
-0--h2p0------- 5 
---------------- 4 
------0-0--------0---0---0---

- D
----------4--4- - 
--0------------- - 
------2----------2---0---2---

4 A
--------------- 8 
---------------- 4 
-2/3-------3-------3---3---3-

  D
---------------   
-----0----------   
-----------------------------

 
 
  D
------------   
-0----0---------------------
-0----0---------------0----

  A
----2---2---   
--------------2--------0----
--------------2-------0----

2 G
----0---0--- 4 
-0-h2--p0-------------------
-0-h2--p0------------------

- D
----0---0--- - 
-----------4----------------
---------------------------

4 A
--2---2----- 4 
----------0---2-------------
-----------0--2------------

  D
----------0-   
--------------------3-----0-
-------------------3-----0-

 
 
D
-0----0------------------
------------------
----------0--------

A
-----0-------------------
------------------
----------0----/12-

G
-0-h2--p0-----4--2-4--/7-
-----/7\--2-4-2-4-
(4)--4-4-----------

D
-----------4--0-------/7-
-----/7\--0-2-0-5-
(5)--4-5-----------

A
-----------0-----0-2-----
------------------
-------------------

D
--------------5--------0-
----0-0-------0---
(0)-------0---0-0--

 
D
----------0------0----   
--------------

A
----------------------   
--------------

G
-4--4--2--4-----/4---- 2 
--------------

D
-5--5--4--5-----/5---- - 
-4p2p0-0-2----

A
---------------------- 4 
--------------

D
-0--0---------0-----0-   
------------0-

 
 
  D
-0----0---------------------
-0----0----------------0----

  A
--------------2--------0----
--------------2--------0----

4 G
-0-h2--p0-------------------
-0-h2--p0-------------------

- D
-----------4----------------
-0---------4----------------

4 A
--------------2-------------
-----------0--2-------------

  D
--------------------3-----0-
--------------------3-----0-

 
 
D
-0----0----------------0----
-0----0----------------0----

A
--------------2-------------
--------------2-------------

G
-0-h2--p0-------------------
-0-h2--p0-----------0-------

D
-----------4----------------
-----------4----------------

A
--------------2-------------
--------------2-------------

D
--------------------3-----0-
--------------------3-----0-

 
 
D
----0--2--/4-----/4----
-----4-----5-----4--2----   
-0----0---------

A
-----------------------
-/5--------------0-------   
----------------

G
-----------------------
-----------0------------- 2 
-0-h2--p0-------

D
-----------------------
--0---------------------- - 
-----------4--2-

A
----0--4--/5-----/5----
------------------------- 4 
----------------

D
-0-------------0-----0-
--------0--------------0-   
----------------

 
 
  D
-------------0-   
-------------------------   
------------------

  A
--------0------   
----3---3----3---3-------   
----2-----2-------

5 G
--------------- 4 
----0---0-0--0---0-----0- 5 
----0-----0-------

- D
-0------------- - 
----2---2----0---2------- - 
------------------

8 A
--------------- 4 
2/3---3----3---3----3---- 8 
-2-----2-----2----

  D
----0----------   
-------------------------   
----------------0-

 
 
  D
-0----0----------------0----
-0----0----------------0-----

  A
--------------2--------0----
--------------2--------0-----

4 G
-0-h2--p0-------------------
-0-h2--p0--------------------

- D
-----------4----------------
-----------4-----------------

4 A
--------------2-------------
--------------2--------------

  D
--------------------3-----0-
--------------------3-----0--

 
 
D
-0----0--------------------
----------------------

A
---------------------------
----------------------

G
-0-h2--p0-----4---2--4--/7-
(7)---/7\--2--2--2--4-

D
-----------4--0------0--/7-
(7)---/7\--0--4--0--5-

A
-----------0---------------
----------------------

D
--------------5----------0-
(0)-0--0--0-----0-----

 
 
D
-----------0---------------
-------0--------------0-

A
-----------0-------2-------
-2-----0----------------

G
(4)--4--4-------------0----
----------------------0-

D
(5)--4--5----------0-----0-
-------------0--2--4----

A
-------------------2-------
-2----------------------

D
(0)--------0----0----------
----3-----0-------------

 
 
D
(0)-------0-------------------
------------------------0----

A
----0-------------------------
------------2-----------0----

G
(0)-------0----2p0------------
------------0--0-------------

D
-------4------------2p0-----0-
(0)--0------0----------------

A
-------------------------3-/5-
(5)-----5\--2-----2----------

D
------------------------------
---------------------3-----0-

 
 
D
-0----0----------------0----
-------
-0----0----------------0---

A
--------------2-------------
-------
--------------2------------

G
-0-h2--p0-------------------
---%---
-0-h2--p0------------------

D
-----------4----------------
-------
-----------4---------------

A
--------------2-------------
-------
-----------0--2------------

D
--------------------3-----0-
-------
--------------------3------

 
guitar solo:
 
D
-3p1p0-------------------/5--3-
-3p1p0--------------------------------

A
--------3p1p0------------------
--------3p1p0-------------------------

G
---------------//----//--------
---------------//----//--3p2p0--------

D
-------------------------------
--------------------------------3p1p0-

A
-------------------------------
--------------------------------------

D
-------------------------------
--------------------------------------

 
                                                                end of solo:
D
------------------------------------------
------------------------------

A
------------------------------------------
------------------------------

G
------------------------------------------
------------------------------

D
-0-----0--0-----0--0-----0--0-----0--0----
-0-----------0-----0--0--0----

A
---/5-------/5-------/5-------/5-------/5-
---/5--0-/5-----2-----------3-

D
------------------------------------------
------------------------------

 
 
D
-----0--2-/4--------/4----
----4-----5h7p5--4--2----   
-0---------------

A
--------------------------
/5---------------0-------   
-----------------

G
--------------------------
------------------------- 2 
-0----h2p0-------

D
-----0--0-----------------
----------0-------------- - 
------------4----

A
----------/5--------/5----
/5----------------------- 4 
---------------2-

D
-0------------0--0------0-
-------0---------------0-   
(0)--------------

 
 
  D
-------------0-   
----------------------   
---------------

  A
--------0----0-   
------3---3---3---3---   
---2---2-------

5 G
--------------- 4 
------0---0---0---0--- 5 
---0---0-------

- D
-0------------- - 
------2---2---2---2--- - 
---0---0-------

8 A
--------------- 4 
-0/3----3---3---3---3- 8 
-2---2---------

  D
----0----------   
----------------------   
----------0--0-

 
 
  D
-0----0----------------0----
-------
-0----0--------------------

  A
--------------2--------0----
-------
---------------------------

4 G
-0-h2--p0-------------------
---%---
-0-h2--p0-----4----2--4-/7-

- D
-----------4----------------
-------
-----------4--0-------0-/7-

4 A
--------------2-------------
-------
-----------0---------------

  D
--------------------3-----0-
-------
--------------5----------0-

 
 
D
---------------------
----------0--------------
-------0--------------0-

A
---------------------
----------0------2-------
-2-----0----------------

G
(7)---/7\----2-2-2-4-
(4)-4--4------------0----
----------------------0-

D
(7)---/7\----0-4-0-5-
(5)-4--5---------0-----0-
-------------0--2--4----

A
---------------------
-----------------2-------
-2----------------------

D
(0)-0--0-----0---0---
(0)-------0---0----------
----3-----0-------------

 
 
D
(0)------0-----------------
----------------------------

A
---0-----------------------
----------------------------

G
(0)------0---2p0-----------
--------------0-------------

D
------------------2p0----0-
(0)--0-----0-----0--0--0----

A
------0----------------3/5-
(5)-----5--5----------------

D
---------------------------
--------------------------0-

 
 
D
-0----0----------------0----
-------
-0----0----------------0----

A
--------------2-------------
-------
--------------2-------------

G
-0-h2--p0-------------------
---%---
-0-h2--p0-------------------

D
-----------4----------------
-------
-----------4----------------

A
--------------2-------------
-------
--------------2-------------

D
--------------------3-----0-
-------
--------------------3-----0-

 
 
D
-0----0----------------0----
-0----0----------------0----

A
-0------------2-------------
-0------------2-------------

G
-0-h2--p0-------------------
-0-h2--p0-----------0-------

D
-----------4----------------
-----------4----------------

A
--------------2-------------
--------------2-----------0-

D
--------------------3-----0-
--------------------3-----0-

 
d-
----12-----7-----5--------------------------------0-----------0------------
a-
----12-----7-----5-----------------------------------------------------3---
G-
----12-----7-----5--------------0-12--------------0-h2-p0-----0-h2-h4------
D~
----12-----7-----5-----0-h2-h4-----------------------------4---------------
A-
----12-----7-----5---------------------------------------------------------
D-
----12-----7-----5--------------------3-b5-~5------------------------------


                    \                                            \  0:16
d-
--0------------------------------------------------------------------------
a-
-----------------0-----------------------------3--------------0------------
G-
--4-p2-p0--2-----2--------0-h2-p0-----0-h2-h4-----4-p2--0--2--2--2-p0------
D~
-----------------0-----------------4--------------------------0--------2-p0
A-
-----------------0--------------------------------------------0------------
D-
-----------------0--------------------------------------------0------------



d-
--------------------------------------------------------4-/5-\4-/8-\7/12\10
a-
-----------------------2---------------------------------------------------
G-
---------------------------------------------------------------------------
D~
-----2--------4--------------------2--2-h4-p2-h4-p2-----4-/5-\4-/8-\7/12\10
A-
--3-----3-/5-----5--3--2--------0------------------------------------------
D-
-----------------------------0---------------------------------------------

     /
d-
-----0--0--0---------------------------------------------------------------
a-
--0--0--------------5-p3-b5-~5-----3-b5-r3-b5-----5-r3---------------------
G-
--2-----4--5--5--------------------------------------------2--4-b5-r4-b5---
D~
--0--------------0---------------------------------------------------------
A-
---------------------------------------------------------------------------
D-
---------------------------------------------------------------------------


                                      \
d-
---------------------------------------------------------------------------
a-
--------------------3--------------0--------------------------3------------
G-
--2-p0-----0-h2-h3-----3-p2-p0-h2--2--------------0--0-h2-h4-----3-p2-p0--2
D~
--------4--------------------------0-----0-h2-h4---------------------------
A-
-----------------------------------0---------------------------------------
D-
-----------------------------------0---------------------------------------



     \           \           \
d-
--4-p0-h4-----4-p0-h4-----4-p0-h4--------0--0--0---------------------------
a-
--0-----------0-----------0-----------0--0--------------5-r3-b5-----3-b5-~5
G-
--2-----------2-----------2-----------2-----4--5--5------------------------
D~
--0-----------0-----------0-----------0--------------0---------------------
A-
--0-----------0-----------0------------------------------------------------
D-
--0-----------0-----------0------------------------------------------------



d-
---------------------------------------------------------------------------
a-
--5-p3-p2-h3-----5-p3-p2-h3-----5-p3-p2-p3-h5-/7-\5-----5-p3-p2--3-p2-p0---
G-
---------------------------------------------------------------------------
D~
---------------------------------------------------------------------------
A-
---------------------------------------------------------------------------
D-
---------------------------------------------------------------------------

                                                             \ 
d-
-----------------------0-----------0-----------0---------------------------
a-
--------------------------------------------3-----------------0------------
G-
--4-p2-p0--4-----------0-h2-p0-----0-h2-h4-----4-p2-p0--2-----2------------
D~
--------------------------------4-----------------------------0------------
A-
--------------------------------------------------------------0------------
D-
--------------3-b5-~~-----------------------------------------0------------


                                               \                 *
d-
---------------------------------------------------------------------------
a-
-----------------------------3--------------0-----------------5------------
G-
-----------0-h2-p0--0-h2-h4-----4-p2-p0-h2--2--------------0--5------------
D~
--0-h2-h4-----------------------------------0-----0-h2-h4-----5------------
A-
--------------------------------------------0------------------------------
D-
--------------------------------------------0--------------------3-h5-~~---


                                        \
d-
--0-----------0-----------0------------------------------------------------
a-
-----------------------3-----------------0---------------------------------
G-
--0-h2-p0-----0-h2-h4-----4-p2-p0--2-----2---------------------------------
D~
-----------4-----------------------------0---------------------------------
A-
-----------------------------------------0---------------------------------
D-
-----------------------------------------0---------------------------------


                                                                   1:12
d-
-----------------------------------------------------------------0---------
a-
-----------------------------------------------------------------0---------
G-
--2-p0--------------------------------0--------------------------2---------
D~
--------2-p0-----2--------4-----5-----9h10-p9--7-h9-p7--5-h7-p5--0---------
A-
--------------3-----3-/5-----5--5----10--------9--------7--------0---------
D-
---------------------------------------------------------------------------




d-
-----------0-----------0-----------0---------------------------------------
a-
---------------------------------------------------------------------------
G-
-----------0-h2--------0-h2--------0--2--------2--0------------------------
D~
--0-h2-h4--------4-----------4-----------0--0--------2--0-----2-----------4
A-
-----------------------------------------------------------3-----3--3-/5---
D-
---------------------------------------------------------------------------

----------------------------------------------------------5---------------
--------------------------------------------------------5-5-8^5^0---------
\--2------------------------------5--7^(8)^7--5--7^(9)-------------8------
\--2------------------------5--7------------------------------------------
\--0------------7^(9)^7^(9)-----------------------------------------------
--------------------------------------------------------------------------

                                                    gliss
------------------------------------------------5-------------------------
--5^8^5^0--5^8^5^0--5^8^5^0--5^8^5^0--------5---8-5-------5---------------
--------------------------------------7^(8)------------7----7^(8)^7^5-----
------------------------------------------------------0^----------------6-
--------------------------------------------------------------------------
--------------------------------------------------------------------------

                                                          slight ritard
--------------------------------------------------------------------------
-----------------------------------------4--------------------------------
---4---5---7---5-7^5^4----4^7^5^4----4^7^5--4--7--4^7^5^4-----4-----------
-----------------------7----------7------------------------7----7-6-5-4---
--------------------------------------------------------------------------
--------------------------------------------------------------------------

                             ritard
----------------------------------------------------------------------------
---------------------------------------------------------------3---3--------
-----------------------------0-----------------------------2---0---2---2/---
-----------------------------------------------------------2---0---0--------
---7-6-5-3----------------------3-----0^2^0^2^0^2^0^1^0----0----------------
-------------5\16-0-^-5-^-3------------------------------------3------------

----------17---------17---------17---------17--------17-20-21----20-17----
--20^(22)----20^(22)----20^(22)----20^(22)-----20-------------19----------
--------------------------------------------------0-----------------------
--------------------------------------------------------------------------
--------------------------------------------------------------------------
--------------------------------------------------------------------------

----------------------17---------17---------17---------17-----------------
---19^(22)^19^20^(22)----20^(22)----20^(22)----20^(22)----20--------------
-------------------------------------------------------------0------------
--------------------------------------------------------------------------
--------------------------------------------------------------------------
--------------------------------------------------------------------------

---17-20-21----20-17-----------------17---------17-20^(21)^20^17^---17----
------------19-------19^(22)^19^(20)----21^(22)------------------20-------
--------------------------------------------------------------------------
--------------------------------------------------------------------------
--------------------------------------------------------------------------
--------------------------------------------------------------------------

--------------------------------------------------------------------------
---20^(22)^20^17----20^(22)^20^17--20^(22)^20^17----20^(22)^20^(22)\------
-----------------19------------------------------19-----------------------
--------------------------------------------------------------------------
--------------------------------------------------------------------------
--------------------------------------------------------------------------

                                  gliss
---------------16^17^20--------------17-20-17^20^17^14-15^14^--------------
------16^18^20-------------17^20---X^------------------------17^14---------
--/18-------------------18--------X--------------------------------17^(18)-
---------------------------------------------------------------------------
---------------------------------------------------------------------------
---------------------------------------------------------------------------


--------------------------------------------------------------------------
--14-------------------------------------------------------17-------------
-----18^(19)^18^14-17^14^17^14^17^14\------19^(21)^19^(21)----19^(21)-----
--------------------------------------------------------------------------
--------------------------------------------------------------------------
--------------------------------------0\----------------------------------

     fast picking
------------16-16-16-16-19-19-19-17-17-17-16-16-16-17-17-17-17------------
---17-17-17----------------------------------------------------19-19-19---
--------------------------------------------------------------------------
--------------------------------------------------------------------------
--------------------------------------------------------------------------
--------------------------------------------------------------------------

---16-16-16----------16-16-16-19-19-19-17-17-17-16-16-16-17-17-17---------
------------17-17-17----------------------------------------------19-19-19
--------------------------------------------------------------------------
--------------------------------------------------------------------------
--------------------------------------------------------------------------
--------------------------------------------------------------------------

---16-16-16---12-12-12-14-12\10-10-10-10-12-10\9-9-9-10-9\7-7-7-9-7\5-5-5-
--------------------------------------------------------------------------
--------------------------------------------------------------------------
--------------------------------------------------------------------------
--------------------------------------------------------------------------
--------------------------------------------------------------------------

                                                                ritard
---7-5\3-3-3-5-3--1-1-1-1-1-1-1-1-1^3^1\0---------------------------------
------------------------------------------5^3^1^0-------------------------
--------------------------------------------------2(4)^2\1----------------
--------------------------------------------------------------------------
------------------------------------------------------------2/------------
-----------------------------------------------------------------0-13-0---
                                                                  ~  ~
                                                        trill
--------------------------------------------------------------------------
-------------------------------------6^0^5-------8^0^7--5^(7)-------------
--------------------5^0--------5-0-4^------7^0^5--------------------------
-------5^7-7-7-7-7-------7-7-7--------------------------------------------
---/7---------------------------------------------------------------------
--------------------------------------------------------------------------

--------------------------------------------------------------------------
--------------------------------------------------4^0---------------------
------------------------------------5^0^4--------------6--4^(6)----4^0----
-----------------5^0----------5^0----------7-4-4--------------------------
------5^7-7-7-7-------7-7-7-7-----7---------------------------------------
---/7---------------------------------------------------------------------

--------------------------------------------------------------------------
--------------------------------------------------------------------------
-------------------5^0----------5^0^---6-0-5-------8----------------------
-------5^7-7-7-7-7------7-7-7-7-----8--------7-0/5----10------------------
---/7---------------------------------------------------------------------
--------------------------------------------------------------------------

--------------------------------------------------------------------------
--------------------------------------------------------------------------
---9^11^9^11^9^11^9\7^9^7^9^7\5^7^5^7^5\4^6^4^6^4^6-----------------------
--------------------------------------------------------------------------
--------------------------------------------------------------------------
--------------------------------------------------------------------------

--------------------------------------------------------------------------
--------------------------------------------------------------------------
---18^6^9-13^6^9-13^6^9-13^6^9-13^6^9-13^6^9-13^6^9-13^6^9----------------
--------------------------------------------------------------------------
--------------------------------------------------------------------------
--------------------------------------------------------------------------

--------------------------------------------------------------------------
--------------------------------------------------------------------------
---14^6^9-14^6^9-14^6^9-14^6^9-14^6^9-14^6^9-14^6^9-14^6^9^8--------------
--------------------------------------------------------------------------
--------------------------------------------------------------------------
--------------------------------------------------------------------------

             repeat 3x                             repeat 4x
--
--------------------
-----------------
-------------------
------------
--
--------------------
-----------------
-------------------
------------
--
: -14^8^11-14^8^11 :
-16^8^11-16^8^11-
: 16^9^13-16^9^13 :
------------
--
: ---------------- :
-----------------
: --------------- :
------------
--
--------------------
-----------------
-------------------
------------
--
--------------------
-----------------
-------------------
------------

             repeat 3x                             repeat 3x
--
--------------------
--------------------
---------------------
-------
--
--------------------
--------------------
---------------------
-------
--
: -17^9^12-17^9^12 :
-19^9^13-19^9^13^11-
: 19^11^14-19^11^14 :
-------
--
: ---------------- :
--------------------
: ----------------- :
-------
--
--------------------
--------------------
---------------------
-------
--
--------------------
--------------------
---------------------
-------

                                  repeat 3x
--
-------------------
---------------------
-----------------------------
--
-------------------
---------------------
-----------------------------
--
-21^11^14-21^11^14-
: 21^16^13 21^16^13 :
-----------------------------
--
-------------------
: ----------------- :
-----------------------------
--
-------------------
---------------------
-----------------------------
--
-------------------
---------------------
-----------------------------

                change feel
--------------------------------------------------------------------------
--------------------------------------------------------------------------
--21^13--21^13--21^13^16--21^13^16--21^13^16--21^13^16--21^16-------------
--------------------------------------------------------------------------
--------------------------------------------------------------------------
--------------------------------------------------------------------------

--------------------------------------------------------------------------
--------------------------------------------------------------------------
--21^16^19--21^15^18--21^15^18--21^14^17--21^13^16--21^13^16--------------
--------------------------------------------------------------------------
--------------------------------------------------------------------------
--------------------------------------------------------------------------

--------------------------------------------------------------------------
--------------------------------------------------------------------------
---19--21^16^19--21^16^19--21^15^18--21^15^18--21^14^17--21^14^17---------
--------------------------------------------------------------------------
--------------------------------------------------------------------------
--------------------------------------------------------------------------

--------------------------------------------------------------------------
--------------------------------------------------------------------------
---21^13^16--21^13^16--21^14^17--19^14^17--19^13^16--19^13^16--19^12^15---
--------------------------------------------------------------------------
--------------------------------------------------------------------------
--------------------------------------------------------------------------

--------------------------------------------------------------------------
--------------------------------------------------------------------------
---19^12^15--19^11^14--19^11^14--16/17^15^17^12^15--17^11^14--17^11^14----
--------------------------------------------------------------------------
--------------------------------------------------------------------------
--------------------------------------------------------------------------

                                                       repeat 8x
--------------------------------------------
---------------------
--------
--------------------------------------------
---------------------
--------
---17^10^13--17^10^13--17^9^12--17^9^12--16^
: ^8^11-16^8^11-16^ :
-------
--------------------------------------------
: ----------------- :
-------
--------------------------------------------
---------------------
--------
--------------------------------------------
---------------------
--------

               repeat 8x            repeat 8x             repeat 8x
---
---------------------
--------------------
---------------------
-----
---
---------------------
--------------------
---------------------
-----
---
: ^9^12-16^9^12-10^ :
: 8^11-16^8^11-16^ :
: ^9^12-16^8^11-16^ :
-----
---
: ----------------- :
: ---------------- :
: ----------------- :
-----
---
---------------------
--------------------
---------------------
-----
---
---------------------
--------------------
---------------------
-----
E-19p15p12--19p15p12-19p15p12-19p15p12-19p15p12-19p15p12-19p15p12-19p15p12-

B--------------------------------------------------------------------------

G--------------------------------------------------------------------------

D--------------------------------------------------------------------------

A--------------------------------------------------------------------------

E--------------------------------------------------------------------------

[ T := Tap using edge of pick; p := pull off finger or pick                ]
 
  T         T        T        T        T        T        T        T
E-20p15p12--20p15p12-20p15p12-20p15p12-20p15p12-20p15p12-20p15p12-20p15p12-

B--------------------------------------------------------------------------

G--------------------------------------------------------------------------

D--------------------------------------------------------------------------

A--------------------------------------------------------------------------

E--------------------------------------------------------------------------

 
  T         T        T        T        T        T        T        T
E--------------------------------------------------------------------------

B-19p15p12--19p15p12-19p15p12-19p15p12-19p15p12-19p15p12-19p15p12-19p15p12-

G--------------------------------------------------------------------------

D--------------------------------------------------------------------------

A--------------------------------------------------------------------------

E--------------------------------------------------------------------------

 
  T         T        T        T        T        T        T        T
E--------------------------------------------------------------------------

B-20p15p12--20p15p12-20p15p12-20p15p12-20p15p12-20p15p12-20p15p12-20p15p12-

G--------------------------------------------------------------------------

D--------------------------------------------------------------------------

A--------------------------------------------------------------------------

E--------------------------------------------------------------------------

 
  T         T        T        T        T        T        T        T
E--------------------------------------------------------------------------

B-17p13p10--17p13p10-17p13p10-17p13p10-17p13p10-17p13p10-17p13p10-17p13p10-

G--------------------------------------------------------------------------

D--------------------------------------------------------------------------

A--------------------------------------------------------------------------

E--------------------------------------------------------------------------

 
  T         T        T        T        T        T        T        T
E--------------------------------------------------------------------------

B-18p13p10--18p13p10-18p13p10-18p13p10-18p13p10-18p13p10-18p13p10-18p13p10-

G--------------------------------------------------------------------------

D--------------------------------------------------------------------------

A--------------------------------------------------------------------------

E--------------------------------------------------------------------------

 
  T        T     T     T     T     T      T     T    T    T    T    T
E---------------------------------------
----------------------------------

B-17p12h14-17p12-17p10-17p12-17p10-17p8-
-17p10-17p8-17p7-17p8-17p7-17p5---

G---------------------------------------
----------------------------------

D---------------------------------------
----------------------------------

A---------------------------------------
----------------------------------

E---------------------------------------
----------------------------------

 
E------------------------------14-14-14-
-15-15-15--17-17-17----------------
B-/12-12-12--12-12-12--12--12-----------
---------------------15-15-15------
G---------------------------------------
-----------------------------------
D---------------------------------------
-----------------------------------
A---------------------------------------
-----------------------------------
E---------------------------------------
-----------------------------------
 
E-17-17-17-17-
-22^24-------22^24----22^24~
~~~~~~~~\---------------15-----

B-------------
----------------------------
--------------/17--------------

G-------------
----------------------------
-------------------------------

D-------------
----------------------------
-------------------------------

A-------------
----------------------------
-------------------------------

E-------------
----------------------------
-------------------------------

 
E-17p15---------------15h17p15-------------
-15h17p15-------------15h17p15--
B--------17-15-17-19-----------17-15-17-19-
----------17-15-17-19-----------
G------------------------------------------
--------------------------------
D------------------------------------------
--------------------------------
A------------------------------------------
--------------------------------
E------------------------------------------
--------------------------------
 
E-----------15-
-17p15------------15-17p15---------15h17----

B-17-17-19-----
--------15-17-19------------17--15----------

G--------------
--------------------------------------------

D--------------
--------------------------------------------

A--------------
--------------------------------------------

E--------------
--------------------------------------------

 
E-19p17p15-----19p17p15-----19p17p15------19p17p15----------

B----------15-----------15------------15------------15------

G-----------------------------------------------------------

D-----------------------------------------------------------

A-----------------------------------------------------------

E-----------------------------------------------------------

 
E-19p17--------19p17--------19p17---------19p17p15----------

B----------15-----------15------------15--------------------

G-----------------------------------------------------------

D-----------------------------------------------------------

A-----------------------------------------------------------

E-----------------------------------------------------------

 
E-------15-------15-------15-------15-
-18^19-15-------15-18^19-15-------15-

B-18^20----18^20----18^20----18^20----
----------18^20-------------18^20----

G-------------------------------------
-------------------------------------

D-------------------------------------
-------------------------------------

A-------------------------------------
-------------------------------------

E-------------------------------------
-------------------------------------

 
E-19p17p15-17----17p15----15----------
-------------------------------------

B----------------------19-------------
-19p17p15-17-----15h17p15\13--15-----

G-------------------------------------
-------------------------------------

D-------------------------------------
-------------------------------------

A-------------------------------------
-------------------------------------

E-------------------------------------
-------------------------------------

 
E------------------------------------------
--------------------------------

B-13h15p13\12--13-----12h13p12----12-------
--------------------------------

G------------------------------14----14p12-
-14p12----12----12--14^-14^-14^-

D------------------------------------------
-------14----14-----------------

A------------------------------------------
--------------------------------

E------------------------------------------
--------------------------------

 
E----------------------------
---------------------
------------------------

B----------------------------
---------------------
------------------------

G-14^16-14^16-----v14p12-----
-12-----12-----------
------------------------

D-------------------------14-
----14------14-13-12-
------------------------

A----------------------------
---------------------
-14-13-12-10~~~~~-------

E----------------------------
---------------------
------------------------

 
E---------------------------
---------------------------
-------------------

B---------15^----------15^--
---------15^----------15^--
-17^-v-^-v-^-17^v^-

G---------15^----------15^--
---------15^----------15^--
-17^-v---v-^-17^v^-

D-17--17--------17--17------
-17--17--------17--17------
-------------------

A---------------------------
---------------------------
-------------------

E---------------------------
---------------------------
-------------------

e:--------------------
--------------------
-------------------------

B:--------------------
--------------------
-------------------------

G:--2~~~h5p2p0--------
--2~~~h5p2p0--------
-------------------------

D:--------------2p0---
-------------2p0----
-------------------------

A:------------------3-
-----------------3--
-------------------------

E:--------------------
--------------------
-------------------------


e:-------------------------------------------------------------------

B:-------------------------------------------------------------------

G:-2~~h5p2p0h5p2p0h5p2p0h5p2p0h5p2p0h5p2p0-h5b8r7p2p0-h5b8r7p2p0-----

D:-------------------------------------------------------------------

A:-------------------------------------------------------------------

E:-------------------------------------------------------------------

					     *		*

e:-------------------------------------------------------------------

B:-------------------------------------------------------------------

G:-h5b8r7p2p0-h5b8r7p2p0-h5b8r7p2p0-h5b8r7p2p0---5b9r5b9r5b9r5b9r5---

D:-------------------------------------------------------------------

A:-------------------------------------------------------------------

E:-------------------------------------------------------------------

     *		*	   *	      * 	  *   *   *   *

e:----------------
-----------------------
--------------------------

B:----------------
-----------------------
--------------------------

G:----5-7b9-7b9---
-----5--7b9-7b9r7-5----
----5-7b9r7b9r7b9r7b9~----

D:--7-------------
--7-----------------7--
--7-----------------------

A:----------------
-----------------------
--------------------------

E:----------------
-----------------------
--------------------------


e:-------------------------------------------------------------------

B:------------------------------------------5-5--8p5-5---5-5--8p5----

G:-7b9r7-5-----7b9r7-5-----7b9r7-5----5-7b-------------7----------7b9

D:---------7-----------7-----------7---------------------------------

A:-------------------------------------------------------------------

E:-------------------------------------------------------------------


e:-------------------------------------8p5-7---------8p5-7-----5h8p5-

B:--5-8p5--5-5-5-5-8p5-------5--8p5-5--------5h7--5--------5h7-------

G:---------------------7--7b-----------------------------------------

D:-------------------------------------------------------------------

A:-------------------------------------------------------------------

E:-------------------------------------------------------------------


e:------8p5-7p5--5------5---8--11--11p8---10p8-8---------------------

B:-7-5-------------/10----------------------------8h10---------------

G:-----------------------------------------------------8-9-8-8-9--6-7

D:-------------------------------------------------------------------

A:-------------------------------------------------------------------

E:-------------------------------------------------------------------


e:-------------------------------------------------------------------

B:-------------------------------------------------------------------

G:--7---4-5-4--------------4-5p4-------------------------------------

D:------------6-5------4-5--------7----7-7--4h5p4---4h5p4------------

A:----------------0-7---------------0-------------7-------7-0-0-4-3--

E:-------------------------------------------------------------------


e:-----------
------------------------5------------------------------

B:-----------
---------------------5-----8p5-------------------------

G:-----------
-------------2--4s6--------------7b9--8p7-5--7p5-------

D:-----------
---------2-4-------------------------------------7p5---

A:--5-3-4----
-0--2-4----------------------------------------------7-

E:--------3~-
-------------------------------------------------------


e:----------------------------------5--------------------------------

B:--------------------------------5---8p5-8p5------------------------

G:---------5--7--5h7p5---5-7--7b9-------------7-8-8b---5-5h7--5----5-

D:--5h6h7--------------7----------------------------------------7----

A:-------------------------------------------------------------------

E:-------------------------------------------------------------------


e:--------------5--5-------------------------------------------------

B:------------5-------8~~-----------9-------7-------5-----4-----3~~\-

G:--5--5h6--6--------------------------------------------------------

D:---------------------------0---9------7-------6------5-----4~~~~~\-

A:-------------------------------------------------------------------

E:-------------------------------------------------------------------


Repeat this 8 times:

    A7	 A13sus4  A7	  A6
e:-------------------------------------------------------------------

B:---2------3------5-------7-----5------3----------------------------

G:---0------0------0-------0-----0------0----------------------------

D:---2------4------5-------7-----5------4----------------------------

A:---0------0---------------------------0----------------------------

E:-------------------------------------------------------------------

 


/
How To Set Up Higher Praise As Your Home Page
Copyright 1999, Higher Praise HigherPraise,Inc. All rights reserved. Terms of Use

Enjoy A Life Changing Experience

 
 
 
HigherPraise, Higher Praise, HigherPraise, Higher Praise, HigherPraise

Members..Sign Up. LogIn

 
 

Higher Praise Other Sites
 
 

HigherPraise.org/
Praise And Worship
www.higherpraise.org

HigherPraise.net
Christian Resources
www.higherpraise.net

HigherPraiseTube.com
Videos And Audios
www.higherpraisetube.com.


ChristianLyrics.org

Lyrics And Chrords
www.christianlyrics.org

ChristianChordsLyrics

Lyrics And Chrords
www.christianchordslyrics.com

ChristianChordLyrics

Lyrics And Chrords
www.christianchordlyrics.com

WorshipLyrics.org
10.000 Illustrations
www.worshiplyrics.org

WorshipLyrics.net
10.000 Illustrations
www.worshiplyrics.net

PraiseLyrics.com
PowerPoint Lyrics

www.praiselyrics.com

PraiseLyrics.org
PowerPoint Lyrics

www.praiselyrics.org

1GodTube.com
Chistian Videos

www1godtube..com

OneGodTube.com
Chistian Videos

www.onegodtube..com

 

/
Copyright 1999 - 2019, Higher Praise™ HigherPraise™,Inc. All rights reserved. Terms of Use