Beautiful Tabs by Creed

Higher Praise - Guitar Chords, Lyrics  GuitarTabs -  Praise nad Worship Music And Christian Songs

Higher Praise - Guitar Tabs, Guitar Chords, Lyrics
   Lyrics, Chords And Tabs
   Popular Lyrics Chords Tab
   Power Point Lyrics
   Praise & Worship Music
   Christian Music Videos
   15900 Videos & Audios
   Midi Files
   Worship Questions
   Christmas Chords, Lyrics
   Lyrics, Chords Tabs Rated

Sermon Outlines And Audio Sermons
   9344 Sermon Outlines
   N.T. Sermon Outlines
   O.T. Sermon Outlines
   Special Guest Outlines
   10.000 Illustrations
   Sunday School Studies
   Bible College Studies
   Greatest Preachers
   Bible Research Tools
Audio Sermons
   2895 Audio Sermons
   85 Sermon Videos
   291 Special Guests Serm

   Complete Audio Bible
Higher Praise Sunday School Teaching
   Children's NT Studies
   Children's OT Studies

   98 Children's Midis
   Gospel For Kids Movie
   Children's JESUS Film
Higher Praise Christian Video Library ,Videos
   Christian Television
   TBN TV Live
   15,000 Videos - HP Tube
   712 Youth Music Vids
  Christian Video Library
   Praise Videos #1 & #2
   85 Sermon Videos
   Prophecy Film -Videos
   JESUS Film -Video
   Childrens JESUS Film
   Gospel For Kids Movie
   Passion Of The Christ
   Noah, Sodom, Sinai, Ark
   Tsunami Videos Photos
News And Information
   Testimonies
   Submit Lyrics, Tabs, Serm
   10.000 Illustrations
   Bible College Course
   Clipart & Web Graphics
   Greatest Preachers
   Complete Talking Bible
   Christian Chat Rooms
   Links Church Resource
   HP Statement Of Faith
Download Clipart
   Audio Sermons
   Clipart & Web Graphics
   Church Administration
   Bible Study Software
   Screen Savers Software
   Verse A Day Software
   Educational Games
   Trade Center Photos

   Soft. Search Engine
Higher Praise News
   Current News
    Archived News
   Submit News
   Newsletter   Higher Praise Interact Prayer
   Prayer For All Needs
   
Submit Lyrics, Sermons
   
Contact Higher Praise
   
Advertising 
   Privacy Policy
//
He Died For You,  Click For Answer! This Is Who Jesus Is Video

'
 
0-9 A B C D E F G H I J K L M N O P Q R S T U V W X Y Z
.

//
Click For Printable...Version Of This File
 

Beautiful


by Creed

Share |



    _____________
   / Creed      /  I think this song is about a boy telling about this girl, who
  / Beautiful  /  seduces every man with her tempting appearance. He tells about
 / Human Clay /  how he dreamed of her, how he passionately wanted to have her
/____________/  - and how he eventually was fooled.



Mainly (the exception is the solo) the song is actually only played by two
guitars switching distortion on and off with distortion pedals. The most common
way of recording guitars today is to record each sound separately, so this is a
rare sight. Iíve marked a switch with vertical lines of stars in the tab charts
- you wonít miss them.

When thereís only those two guitars, Iíve omitted to write Gtr I, II above every
line in the tabs, so when two connected lines are written, Gtr I (right speaker)
is playing the top line, while Gtr II (left speaker) is playing the bottom line,
and when only one line is written, both the guitars are playing that part. In
the solo Iíve of course marked the guitars properly to avoid confusion.

Gtr I, II (D A D G B E) Ė Electric Clean/Heavily Distorted
Gtr III (D A D G B E) Ė Electric Overdriven



1st Verse:
 Q=75 bpm
 4/4
  S S   E   S S S S S S E   S S S  S  S S   E   S S S S S S S S Q       S S

-----
-----------------------------------
---------------------------------

-----
-----------------------------------
---------------------------------

-----
-----------------------------------
---------------------------------

-----
-3-------3h5-----2-------3--0------
-3-------3h5-----2---------------

-----
-----------------------------------
---------------------------------

-0-0-
-----0-0-----0-0-----0-0-------0-0-
-----0-0-----0-0---0-0-------0-0-



 S S   Q       S E.    Q       S  E.       Q       S E.    Q       Q

-----
-----------------------------------
---------------------------------

-----
-----------------------------------
---------------------------------

-----
-----------------------------------
---------------------------------

-----
-3-------3h5-----2-------3-(3)-----
-3-------3h5-----2-------3-------

-----
----------------------------5------
---------------------------------

-0-0-
-----------------------------------
---------------------------------



                                                         *on*
                                                             PM

  E   S S S S S S E   S S S  S  S S   E   S S S S S S e      S S S   S S S

-----------------------------------
---------------------**---------------

-----------------------------------
---------------------**---------------

-----------------------------------
---------------------**---------------

-3-------3h5-----2-------3--0------
-3-------3h5-----2---**-----3b4.5r3p0-

-----------------------------------
---------------------**---------------

-----0-0-----0-0-----0-0-------0-0-
-----0-0-----0-0-----**-0-0-----------




 Q       S E.    Q       S  E.       Q       S E.    e      E   S   S S S

-----------------------------------
---------------------**---------------

-----------------------------------
---------------------**---------------

-----------------------------------
---------------------**---------------

-3-------3h5-----2-------3-(3)-----
-3-------3h5-----2---**-----3b4.5r3p0-

----------------------------5------
---------------------**---------------

-----------------------------------
---------------------**---------------



                                         PM
     PM
      PM

  E.    S S S E.    S S S E   S S   E    S S S S S S E    S S S E    S

---------------------------------
------------------------------------

---------------------------------
------------------------------------

-3-----3-3---3-----3-3---3---3---
------------------------------------

-1-----1-1p0-1-----1-1p0-1---1p0-
-3~-------3h5-----2~-------3------0-

-1-----1-1p0-1-----1-1p0-1---1p0-
------0-0-----0-0------0-0---5~---0-

-1-----1-1p0-1-----1-1p0-1---1p0-
------0-0-----0-0------0-0--------0-



              PM
  E.    S S S E   +H

---------------------------------

---------------------------------

-3-----3-3---3---(3)-------------

-1-----1-1p0-1---(1)-------------

-1-----1-1p0-1---(1)-------------

-1-----1-1p0-1---(1)-------------





2nd Verse:
 *off*
     E    S S S S S S E   S S S  S  S S      E   S S S S S S E   S E.    S S

-**------------------------------------
------------------------------------

-**------------------------------------
------------------------------------

-**------------------------------------
------------------------------------

-**-3--------3h5-----2-------3-(3)-----
----3-------3h5-----2---------------

-**-----------------------------5------
------------------------------------

-**------0-0-----0-0-----0-0-------0-0-
--------0-0-----0-0-----0-0-----0-0-



                                        *off*

   +W                                       Q       S E.    Q       Q

---------------------------------------
-**---------------------------------

---------------------------------------
-**---------------------------------

---(3)---------------------------------
-**---------------------------------

---(1)---------------------------------
-**-3-------3h5-----2-------3-------

---(1)---------------------------------
-**---------------------------------

---(1)---------------------------------
-**---------------------------------



                                                         *on*
                                                             PM

  E   S S S S S S E   S S S  S  S S   E   S S S S S S e      S S S   S S S

-----------------------------------
---------------------**---------------

-----------------------------------
---------------------**---------------

-----------------------------------
---------------------**---------------

-3-------3h5-----2-------3--0------
-3-------3h5-----2---**-----3b4.5r3p0-

-----------------------------------
---------------------**---------------

-----0-0-----0-0-----0-0-------0-0-
-----0-0-----0-0-----**-0-0-----------



 Q       S E.    Q       S  E.       Q       S E.    e      E   S   S S S

-----------------------------------
---------------------**---------------

-----------------------------------
---------------------**---------------

-----------------------------------
---------------------**---------------

-3-------3h5-----2-------3-(3)-----
-3-------3h5-----2---**-----3b4.5r3p0-

----------------------------5------
---------------------**---------------

-----------------------------------
---------------------**---------------





Chorus:
                                           PM
     PM
      PM

    E.    S S S E.    S S S E   S S   E    S S S S S S E    S S S E    S  3x

----------------------------------
-------------------------------------


o---------------------------------
------------------------------------o


--3-----3-3---3-----3-3---3---3---
-------------------------------------


--1-----1-1p0-1-----1-1p0-1---1p0-
-3~-------3h5-----2~-------3------0--


o-1-----1-1p0-1-----1-1p0-1---1p0-
------0-0-----0-0------0-0---5~---0-o


--1-----1-1p0-1-----1-1p0-1---1p0-
------0-0-----0-0------0-0--------0--



                                    PM-----
       PM--
       PM--

  E.    S S S Q.          Q         S E    S E   S E   S E   S E   S

---------------------------------
----------------------------------

---------------------------------
----------------------------------

-3-----3-3---3-----------3-------
----------------------------------

-1-----1-1p0-1-----------1-------
-0-0----0-0---0-0---0-0---0-0---0-

-1-----1-1p0-1-----------1-------
-0-0----0-0---0-0---0-0---0-0---0-

-1-----1-1p0-1-----------1-------
-0-0----0-0---0-0---0-0---0-0---0-



        PM--
       PM--
     PM--------
     PM----
     PM----

  E   S E   S E   S E   S E   S S   +S  S E   S E   S E   S E   S E

---------------------------------
-----------------------------------

---------------------------------
-----------------------------------

-------------------------7b8-----
-------7b8---------7b8---------7---

-0---0-0---0-0---0-0---0-x---0-0-
-(0)-0-x---0-0---0-x---0-0---0-x---

-0---0-0---0-0---0-0---0-5b6-0-0-
-(0)-0-5b6-0-0---0-5b6-0-0---0-5---

-0---0-0---0-0---0-0---0-----0-0-
-(0)-0-----0-0---0-----0-0---0-----



  +W

---------------------------------

---------------------------------

-(7)-----------------------------

---------------------------------

-(5)-----------------------------

---------------------------------





Interlude:
*off*
     E    S S S S S S E   S S S  S  S S   E   S S S S S S E   S S E   S S

-**------------------------------------
---------------------------------

-**------------------------------------
---------------------------------

-**------------------------------------
---------------------------------

-**-3--------3h5-----2-------3-(3)-----
-3-------3h5-----2-------3-------

-**-----------------------------5------
---------------------------------

-**------0-0-----0-0-----0-0-------0-0-
-----0-0-----0-0-----0-0-----0-0-



  E    S S S S S S E   S S S  S  S S   E   S S S S S S E   S S E   S S

------------------------------------
---------------------------------

------------------------------------
---------------------------------

------------------------------------
---------------------------------

-3--------3h5-----2-------3-(3)-----
-3-------3h5-----2-------3-------

-----------------------------5------
---------------------------------

------0-0-----0-0-----0-0-------0-0-
-----0-0-----0-0-----0-0-----0-0-



 E    S S S S S S E   S S S  S  S S   E   S S S S S S S E.    Q

------------------------------------
---------------------------------

------------------------------------
---------------------------------

------------------------------------
-----------------0-3-----2-------

-3--------3h5-----2-------3-(3)-----
-3-------3h5---------------------

-----------------------------5------
---------------------------------

------0-0-----0-0-----0-0-------0-0-
-----0-0-----0-0-----------------





3rd Verse:
    E    S S S S S S E   S S S  E    S   E   S S S S S S E   S S E   S S  3x

-------------------------------------
----------------------------------


o------------------------------------
---------------------------------o


-------------------------------------
----------------------------------


--3--------3h5-----2-------3-(3)-----
-3-------3h5-----2-------3--------


o-----------------------------5------
---------------------------------o


-------0-0-----0-0-----0-0---------0-
-----0-0-----0-0-----0-0-----0-0--



                                                         *on*
                                                             PM

  E   S S S S S S E   S S S  E    S   E   S S S S S S e      S S S   S S S

-----------------------------------
---------------------**---------------

-----------------------------------
---------------------**---------------

-----------------------------------
---------------------**---------------

-3-------3h5-----2-------3--3------
-3-------3h5-----2---**-----3b4.5r3p0-

---------------------------(5)-----
---------------------**---------------

-----0-0-----0-0-----0-0---------0-
-----0-0-----0-0-----**-0-0-----------





Chorus:
                                           PM
     PM
      PM

    E.    S S S E.    S S S E   S S   E    S S S S S S E    S S S E    S  3x

----------------------------------
-------------------------------------


o---------------------------------
------------------------------------o


--3-----3-3---3-----3-3---3---3---
-------------------------------------


--1-----1-1p0-1-----1-1p0-1---1p0-
-3~-------3h5-----2~-------3------0--


o-1-----1-1p0-1-----1-1p0-1---1p0-
------0-0-----0-0------0-0---5~---0-o


--1-----1-1p0-1-----1-1p0-1---1p0-
------0-0-----0-0------0-0--------0--



                                    PM-----
       PM--
       PM--

  E.    S S S Q.          Q         S E    S E   S E   S E   S E   S

---------------------------------
----------------------------------

---------------------------------
----------------------------------

-3-----3-3---3-----------3-------
----------------------------------

-1-----1-1p0-1-----------1-------
-0-0----0-0---0-0---0-0---0-0---0-

-1-----1-1p0-1-----------1-------
-0-0----0-0---0-0---0-0---0-0---0-

-1-----1-1p0-1-----------1-------
-0-0----0-0---0-0---0-0---0-0---0-



        PM--
       PM--
     PM--------
     PM----
     PM----

  E   S E   S E   S E   S E   S S   +S  S E   S E   S E   S E   S E

---------------------------------
-----------------------------------

---------------------------------
-----------------------------------

-------------------------7b8-----
-------7b8---------7b8---------7---

-0---0-0---0-0---0-0---0-x---0-0-
-(0)-0-x---0-0---0-x---0-0---0-x---

-0---0-0---0-0---0-0---0-5b6-0-0-
-(0)-0-5b6-0-0---0-5b6-0-0---0-5---

-0---0-0---0-0---0-0---0-----0-0-
-(0)-0-----0-0---0-----0-0---0-----



    S E   S  E    S E   S  E    S S  E

-----------------------------------------


o---------------------------------------o


----------19b20---------19b20-----19b20--


-----------x-------------x---------x-----


o---------17b18---------17b18-----17b18-o


--0-0---0-------0-0---0-------0-0--------



  S E   S  E    S E   S  E    S S S S    S  S  S  S  S  S  S  E    E    E    E   S

-------------------------------------
--x--x--x--x--x--x--x--x----x----x----x-----

-------------------------------------
--x--x--x--x--x--x--x--x----x----x----x-----

---------19~-----------19~-----------
-19-19-19-19-19-19-19-19---19---19---19-----

----------x-------------x------------
--x--x--x--x--x--x--x--x----x----x----x---0-

---------17~-----------17~-----------
-17-17-17-17-17-17-17-17---17---17---17---0-

-0-0---0-------0-0---0-------0-0-0-0-
--x--x--x--x--x--x--x--x----x----x----x---0-





Solo:
 Gtr I, II
  E.    S S S S E   E     S E   S   S    E.     S E   S E   S S S E   S   S

-------------------------------------
-------------------------------------

-------------------------------------
-------------------------------------

-------------------------------------
-------------------------------------

-7-----7-7-7-7h9---9-----9-9---7---0-
--4------4-4---4h5---5-5-5-4---------

-5-----5-5-5-5-----5-----5-5---5---0-
--2------2-2---2-----2-2-2-2---0---0-

-5-----5-5-5-5-----5-----5-5---5---0-
--2------2-2---2-----2-2-2-2---0---0-



Gtr III

                   T T S S S E     S    H.                      S E     S

-------------------------------------
-------------------------------------

-------------------------------------
-------------------------------------

-------------------------------------
---------------------------7s9---s12-

-------------------4s7-7-7-7s9---s12-
-s9~---------------------------------

-------------------------------------
-------------------------------------

-------------------------------------
-------------------------------------



    E.    S E     S E      S E   S S E      E.      S E    S E      S E   S S E

----------------------------------------
----------------------------------------

----------------------------------------
----------------------------------------

----------------------------------------
----------------------------------------

---4-------------4h5------------5p4-----
--4--------------4h5------------5p4-----

---------0-0--------------0-0-------0---
----------0-0-------------0-0-------0---

---------0-0--------------0-0-------0---
----------0-0-------------0-0-------0---



   Q.            E    +H                   E.      E.     E    +H

----------------------------------------
----------------14~--(14)~--------------

----------------------------------------
----------------------------------------

-s11-----------s14~--(14)~--------------
-11-----s12-----------------------------

----------------------------------------
----------------------------------------

----------------------------------------
----------------------------------------

----------------------------------------
----------------------------------------





Bridge:
    E.    S S S S E   E   S E   S S   E.    S E   S E   S S S E   S S

----------------------------------
---------------------------------


o---------------------------------
---------------------------------


----------------------------------
---------------------------------


--7-----7-7-7-7h9---9---9-9---7-0-
-4-----4-4---4h5---5-5-5-4-------


o-5-----5-5-5-5-----5---5-5---5-0-
-2-----2-2---2-----2-2-2-2---0-0-


--5-----5-5-5-5-----5---5-5---5-0-
-2-----2-2---2-----2-2-2-2---0-0-



  E.    S E   S E   S E   S S E     E.    S E   S E   S E   S S E

---------------------------------
----------------------------------


---------------------------------
---------------------------------o


---------------------------------
----------------------------------


-4-----------4h5---------5p4-----
-4-----------4h5---------5p4------


-------0-0---------0-0-------0---
-------0-0---------0-0-------0---o


-------0-0---------0-0-------0---
-------0-0---------0-0-------0----





Chorus:
                                           PM
     PM
      PM

    E.    S S S E.    S S S E   S S   E    S S S S S S E    S S S E    S  3x

----------------------------------
-------------------------------------


o---------------------------------
------------------------------------o


--3-----3-3---3-----3-3---3---3---
-------------------------------------


--1-----1-1p0-1-----1-1p0-1---1p0-
-3~-------3h5-----2~-------3------0--


o-1-----1-1p0-1-----1-1p0-1---1p0-
------0-0-----0-0------0-0---5~---0-o


--1-----1-1p0-1-----1-1p0-1---1p0-
------0-0-----0-0------0-0--------0--



                                    PM-----
       PM--
       PM--

  E.    S S S Q.          Q         S E    S E   S E   S E   S E   S

---------------------------------
----------------------------------

---------------------------------
----------------------------------

-3-----3-3---3-----------3-------
----------------------------------

-1-----1-1p0-1-----------1-------
-0-0----0-0---0-0---0-0---0-0---0-

-1-----1-1p0-1-----------1-------
-0-0----0-0---0-0---0-0---0-0---0-

-1-----1-1p0-1-----------1-------
-0-0----0-0---0-0---0-0---0-0---0-



        PM--
       PM--
     PM--------
     PM----
     PM----

  E   S E   S E   S E   S E   S S   +S  S E   S E   S E   S E   S E

---------------------------------
-----------------------------------

---------------------------------
-----------------------------------

-------------------------7b8-----
-------7b8---------7b8---------7---

-0---0-0---0-0---0-0---0-x---0-0-
-(0)-0-x---0-0---0-x---0-0---0-x---

-0---0-0---0-0---0-0---0-5b6-0-0-
-(0)-0-5b6-0-0---0-5b6-0-0---0-5---

-0---0-0---0-0---0-0---0-----0-0-
-(0)-0-----0-0---0-----0-0---0-----



    S E   S  E    S E   S  E    S S  E

-----------------------------------------


o---------------------------------------o


----------19b20---------19b20-----19b20--


-----------x-------------x---------x-----


o---------17b18---------17b18-----17b18-o


--0-0---0-------0-0---0-------0-0--------



                                                                 
---3---
   
---3---

  S E   S  E    S E   S  E    S S S S    S  S  S  S  S  S  S  S  E   E   E   E   E   E

-------------------------------------
--x--x--x--x--x--x--x--x--x---x---x---x---x---x--

-------------------------------------
--x--x--x--x--x--x--x--x--x---x---x---x---x---x--

---------19~-----------19~-----------
-19-19-19-19-19-19-19-19-19--19--19--19--19--19--

----------x-------------x------------
--x--x--x--x--x--x--x--x--x---x---x---x---x---x--

---------17~-----------17~-----------
-17-17-17-17-17-17-17-17-17--17--17--17--17--17--

-0-0---0-------0-0---0-------0-0-0-0-
--x--x--x--x--x--x--x--x--x---x---x---x---x---x--



  W                                 +W

---------------------------------
-----------------------------------

---------------------------------
-----------------------------------

---------------------------------
-----------------------------------

-0-------------------------------
-(0)-------------------------------

-0-------------------------------
-(0)-------------------------------

-0-------------------------------
-(0)-------------------------------




She wears a coat of colour
Loved by some, feared by others
Sheís immortalized in young menís eyes

Lust she breeds in the eyes of brothers
Violent sons make bitter mothers
So close your eyes, hereís your surprise

In your mind sheís your companion
Vile instincts often candid
Your regret is all thatís left

The beautiful is empty
Beautiful is free
Beautiful loves no one
Beautiful stripped me
Stripped me
Stripped me
She stripped me

She told me where Iím going
And it's far away from home
I think I'll go there on my own



- 15th /October /05

 


/
How To Set Up Higher Praise As Your Home Page
Copyright 1999, Higher Praise HigherPraise,Inc. All rights reserved. Terms of Use

Enjoy A Life Changing Experience

 
 
 
HigherPraise, Higher Praise, HigherPraise, Higher Praise, HigherPraise

Members..Sign Up. LogIn

 
 

Higher Praise Other Sites
 
 

HigherPraise.org/
Praise And Worship
www.higherpraise.org

HigherPraise.net
Christian Resources
www.higherpraise.net

HigherPraiseTube.com
Videos And Audios
www.higherpraisetube.com.


ChristianLyrics.org

Lyrics And Chrords
www.christianlyrics.org

ChristianChordsLyrics

Lyrics And Chrords
www.christianchordslyrics.com

ChristianChordLyrics

Lyrics And Chrords
www.christianchordlyrics.com

WorshipLyrics.org
10.000 Illustrations
www.worshiplyrics.org

WorshipLyrics.net
10.000 Illustrations
www.worshiplyrics.net

PraiseLyrics.com
PowerPoint Lyrics

www.praiselyrics.com

PraiseLyrics.org
PowerPoint Lyrics

www.praiselyrics.org

1GodTube.com
Chistian Videos

www1godtube..com

OneGodTube.com
Chistian Videos

www.onegodtube..com

 

/
© Copyright 1999 - 2019, Higher Praise™ HigherPraise™,Inc. All rights reserved. Terms of Use