40 Acres Tabs by Caedmons Call

Higher Praise - Guitar Chords, Lyrics  GuitarTabs -  Praise nad Worship Music And Christian Songs

Higher Praise - Guitar Tabs, Guitar Chords, Lyrics
   Lyrics, Chords And Tabs
   Popular Lyrics Chords Tab
   Power Point Lyrics
   Praise & Worship Music
   Christian Music Videos
   15900 Videos & Audios
   Midi Files
   Worship Questions
   Christmas Chords, Lyrics
   Lyrics, Chords Tabs Rated

Sermon Outlines And Audio Sermons
   9344 Sermon Outlines
   N.T. Sermon Outlines
   O.T. Sermon Outlines
   Special Guest Outlines
   10.000 Illustrations
   Sunday School Studies
   Bible College Studies
   Greatest Preachers
   Bible Research Tools
Audio Sermons
   2895 Audio Sermons
   85 Sermon Videos
   291 Special Guests Serm

   Complete Audio Bible
Higher Praise Sunday School Teaching
   Children's NT Studies
   Children's OT Studies

   98 Children's Midis
   Gospel For Kids Movie
   Children's JESUS Film
Higher Praise Christian Video Library ,Videos
   Christian Television
   TBN TV Live
   15,000 Videos - HP Tube
   712 Youth Music Vids
  Christian Video Library
   Praise Videos #1 & #2
   85 Sermon Videos
   Prophecy Film -Videos
   JESUS Film -Video
   Childrens JESUS Film
   Gospel For Kids Movie
   Passion Of The Christ
   Noah, Sodom, Sinai, Ark
   Tsunami Videos Photos
News And Information
   Testimonies
   Submit Lyrics, Tabs, Serm
   10.000 Illustrations
   Bible College Course
   Clipart & Web Graphics
   Greatest Preachers
   Complete Talking Bible
   Christian Chat Rooms
   Links Church Resource
   HP Statement Of Faith
Download Clipart
   Audio Sermons
   Clipart & Web Graphics
   Church Administration
   Bible Study Software
   Screen Savers Software
   Verse A Day Software
   Educational Games
   Trade Center Photos

   Soft. Search Engine
Higher Praise News
   Current News
    Archived News
   Submit News
   Newsletter   Higher Praise Interact Prayer
   Prayer For All Needs
   
Submit Lyrics, Sermons
   
Contact Higher Praise
   
Advertising 
   Privacy Policy
//
He Died For You,  Click For Answer! This Is Who Jesus Is Video

'
 
0-9 A B C D E F G H I J K L M N O P Q R S T U V W X Y Z
.

//
Click For Printable...Version Of This File
 

40 Acres


by Caedmons Call

Share |



Band: Caedmon's Call
Song: 40 Acres
Album: 40 Acres



This song has at least two guitars.  The one in the beginning has a capo on two and it
plays the intro riff, while the next one comes in playing the chords with a capo on 4.
I'll tab all the chords for the second guitar, and the intro riff for the first.

Chords Used:
   G  B/G D Dsus2 Csus2 Em7 Em9
e--3---3--2---3-----3----3---2--

B--3---3--3---3-----3----3---3--

G--0---0--2---2-----0----0---0--

D--0---0--0---0-----2----2---0--

A--2---2------------3----2---2--

E--3---------------------0---0--



Intro:(Guitar 1, capo 2)

e-------0-----------0-----------0----------0------

B---------0-----------0-----------0----------0----

G-----2-----2-----2-----2-----2-----2----2-----2--
 x2
D-------------------------------------0-----------

A--0----------0h2---------2h4---------------------

E-------------------------------------------------


Verse 1: (chords above are for Guitar 2, capo 4)
   G          Dsus         B/G            Csus2
e-------0-------------0-----------0-------------0------

B---------0-------------0-----------0-------------0----

G-----2-----2-------2-----2-----2-----2-------2-----2--

D------------------------------------------0-----------

A--0------------0h2---------2h4------------------------

E------------------------------------------------------

  Out on these Texas plains you can see for a million lives

   G            Dsus           B/G           Csus2
e-------0-------------0---------------0-------------0------

B---------0-------------0---------------0-------------0----

G-----2-----2-------2-----2---------2-----2-------2-----2--

D----------------------------------------------0-----------

A--0------------0h2-------------2h4------------------------

E----------------------------------------------------------

   And there's a thousand exits between here and the state line

   G          Dsus          B/G          Csus2
e-------0------------0-------------0----------0------

B---------0------------0-------------0----------0----

G-----2-----2------2-----2-------2-----2----2-----2--

D----------------------------------------0-----------

A--0-----------0h2-----------2h4---------------------

E----------------------------------------------------

     About the last time that I    saw   you

      G           Dsus         B/G         Csus2
e------------0-----------0-----------0----------0------

B--------------0-----------0-----------0----------0----

G----------2-----2-----2-----2-----2-----2----2-----2--

D------------------------------------------0-----------

A-------0----------0h2---------2h4---------------------

E------------------------------------------------------

You said call me Pandora,      call  me a fool

(all chords Guitar 2, capo 4)
Em9                                 Csus2
And I'm thinking this view it could do you some good
Em9                      
So drop these scales and take a look


Chorus:
D                Em7           Csus2
There's 40 acres and redemption to be found
D    Em7           Csus2
Just along down the way
D          Em7            Csus2
There is a place where no plow blade has turned the ground
D          Em7            Csus2        D                 G  Dsus  B/G
And you will turn it over, hey, 'cause out here hope remains
  Csus                 G     Dsus  B/G  Csus2
'Cause out here hope remains...


Verse 2:
G             Dsus     B/G      Csus2
Out here the Texas sky is as big as the sea
G                Dsus         B/G             Csus2
And you're alone in your room like an island floating free
G             Dsus         B/G             Csus2
Your spirit's hanging in a bottle out on a tree
G            Dsus                   B/G              Csus2
You say that you're the black sheep, I say you're still family

Em9                  Csus2
So throw that bottle to the waves
Em9                            Csus2
They'll bring you in to me and from the shore you will see

Chorus x1

Solo: (capo 4)
                  G      Dsus    B/G      Csus2       G
e-----------------333-2--2-3-3-2--2-2-3-3--2-3--3-3-5-7--

B-----------------333-3--3-3-3-3--3-3-3-3--3-3--5-5-5-8--

G-----------------000-0--0-0-0-0--0-0-0-0--0-0--0-0-0-0--

D--------------------------------------------------------

A--------------------------------------------------------

E--------------------------------------------------------

Out here hope remains

      Dsus2  B/G          Csus2             G
e--77778-8-7-10-7--8-7-7--------3-3--------------

B--77777-7-7-7--7--7-7-7---3-h5-5-3--------------

G--00000-0-0-0--0--0-0-0---0------0-4h5--2--0----

D------------------------------------------------

A------------------------------------------------

E------------------------------------------------



Verse 3: (Guitar 1 is also playing intro riff)
G            Dsus              B/G         Csus2
Out here the Texas rain is the hardest I've ever seen
G               Dsus            B/G        Csus2
It'll wash your house away, but it'll also make you clean

Em9                    Csus2
Now these rocks they are crying too
Em9                    Csus2
And this whole land is calling out for you


Chorus x1 (with "Out here hope remains x4)

End on G


That's it! For suggestions, corrections, and requests, email me:

 


/
How To Set Up Higher Praise As Your Home Page
Copyright 1999, Higher Praise HigherPraise,Inc. All rights reserved. Terms of Use

Enjoy A Life Changing Experience

 
 
 
HigherPraise, Higher Praise, HigherPraise, Higher Praise, HigherPraise

Members..Sign Up. LogIn

 
 

Higher Praise Other Sites
 
 

HigherPraise.org/
Praise And Worship
www.higherpraise.org

HigherPraise.net
Christian Resources
www.higherpraise.net

HigherPraiseTube.com
Videos And Audios
www.higherpraisetube.com.


ChristianLyrics.org

Lyrics And Chrords
www.christianlyrics.org

ChristianChordsLyrics

Lyrics And Chrords
www.christianchordslyrics.com

ChristianChordLyrics

Lyrics And Chrords
www.christianchordlyrics.com

WorshipLyrics.org
10.000 Illustrations
www.worshiplyrics.org

WorshipLyrics.net
10.000 Illustrations
www.worshiplyrics.net

PraiseLyrics.com
PowerPoint Lyrics

www.praiselyrics.com

PraiseLyrics.org
PowerPoint Lyrics

www.praiselyrics.org

1GodTube.com
Chistian Videos

www1godtube..com

OneGodTube.com
Chistian Videos

www.onegodtube..com

 

/
Copyright 1999 - 2019, Higher Praise™ HigherPraise™,Inc. All rights reserved. Terms of Use