Happy Good Morning Blues Tabs by Bruce Cockburn

Higher Praise - Guitar Chords, Lyrics  GuitarTabs -  Praise nad Worship Music And Christian Songs

Higher Praise - Guitar Tabs, Guitar Chords, Lyrics
   Lyrics, Chords And Tabs
   Popular Lyrics Chords Tab
   Power Point Lyrics
   Praise & Worship Music
   Christian Music Videos
   15900 Videos & Audios
   Midi Files
   Worship Questions
   Christmas Chords, Lyrics
   Lyrics, Chords Tabs Rated

Sermon Outlines And Audio Sermons
   9344 Sermon Outlines
   N.T. Sermon Outlines
   O.T. Sermon Outlines
   Special Guest Outlines
   10.000 Illustrations
   Sunday School Studies
   Bible College Studies
   Greatest Preachers
   Bible Research Tools
Audio Sermons
   2895 Audio Sermons
   85 Sermon Videos
   291 Special Guests Serm

   Complete Audio Bible
Higher Praise Sunday School Teaching
   Children's NT Studies
   Children's OT Studies

   98 Children's Midis
   Gospel For Kids Movie
   Children's JESUS Film
Higher Praise Christian Video Library ,Videos
   Christian Television
   TBN TV Live
   15,000 Videos - HP Tube
   712 Youth Music Vids
  Christian Video Library
   Praise Videos #1 & #2
   85 Sermon Videos
   Prophecy Film -Videos
   JESUS Film -Video
   Childrens JESUS Film
   Gospel For Kids Movie
   Passion Of The Christ
   Noah, Sodom, Sinai, Ark
   Tsunami Videos Photos
News And Information
   Testimonies
   Submit Lyrics, Tabs, Serm
   10.000 Illustrations
   Bible College Course
   Clipart & Web Graphics
   Greatest Preachers
   Complete Talking Bible
   Christian Chat Rooms
   Links Church Resource
   HP Statement Of Faith
Download Clipart
   Audio Sermons
   Clipart & Web Graphics
   Church Administration
   Bible Study Software
   Screen Savers Software
   Verse A Day Software
   Educational Games
   Trade Center Photos

   Soft. Search Engine
Higher Praise News
   Current News
    Archived News
   Submit News
   Newsletter   Higher Praise Interact Prayer
   Prayer For All Needs
   
Submit Lyrics, Sermons
   
Contact Higher Praise
   
Advertising 
   Privacy Policy
//
He Died For You,  Click For Answer! This Is Who Jesus Is Video

'
 
0-9 A B C D E F G H I J K L M N O P Q R S T U V W X Y Z
.

//
Click For Printable...Version Of This File
 

Happy Good Morning Blues


by Bruce Cockburn

Share |




Article: 15032 of rec.music.makers.guitar.acoustic
Path: unixg.ubc.ca!news.bc.net!sunserver.insinc.net!news.sprintlink.net!uunet!in1.uu.net!comp.vuw.ac.nz!canterbury.ac.nz!MANUKA.lincoln.ac.nz!pc095229.lincoln.ac.nz!whitej

Newsgroups: rec.music.makers.guitar.acoustic
Subject: TAB: Bruce Cockburn - Happy Good Morning Blues
Date: Tue, 4 Apr 1995 10:18:03
Organization: Lincoln University, New Zealand
Lines: 252

NNTP-Posting-Host: pc095229.lincoln.ac.nz
X-Newsreader: Trumpet for Windows [Version 1.0 Rev A]
Here's another Cockburn tune for y'all......
Happy Good Morning Blues - Bruce Cockburn
~~~~~~~~~~~~~~~~~~~~~~~~
>From  the album "High Winds White Sky" 1971.


Tuning: Standard (Cockburn tunes all strings down one semitone)
Timing: 4/4 with the odd tricky bit...
Notes : This tune needs swing!
        Measures 41 & 42 are real finger-busters.  If anyone has
        other suggestions, please Email us. It's fairly easy to
        simplify if necessary.
        Bracketed notes are optional.  Feedback appreciated.  Enjoy!!

  Esus4                                                 E
1 , . , . , . , .   , . , . , . , .   , . , . , . , .   , . , . , . , .
-----------------
-----------------
-----------------
-----------------

-----------------
-----------------
-----------------
-----------------

---2-----2-------
---2-----2-------
---2-----2-------
-----------------

---2-----2-------
---2-----2-------
---2-----2-----x/
-6---------6-----

-----4p2---4---2-
-----4p2---4---2-
-----4p2---4p2-x/
-7---------7-----

-0-------0-------
-0-------0-------
-0-------0-------
-0---0---0---0---


5 , . , . , . , .   , . , . , . , .   , . , . , . , .   , . , . , . , .
-0-----4-----2---
-----0-----------
-0-----2---------
-----0----(0)----

-----------------
-----------------
-------------4---
------------(0)--

-1-----4-----2---
-----1-----------
-1-----2---------
-----1--------(1)

-----------------
-----------------
------------4----
-----------------

-----------------
-----------------
-----------------
-----------------

-0---0---0---0---
-0---0---0---0---
-0---0---0---0---
-0---0---0---0---
  Good  day   to        you           Fat   bal- loon       man

                                      Dmaj7
9 , . , . , . , .   , . , . , . , .   , . , . , . , .   , . , . , . , .
-0-----0-----0---
-----2---4-------
---------------2-
-----------------

-----------------
-----------------
-------2---------
---2-------2-----

-1-----1----1----
-----2---4-------
---2-------2-----
-------2---------

-----------------
-----------------
-----4-------4---
-----4-------4---

-----------------
-----------------
-5-------5-------
-5-------5-------

-0---0---0---0---
-0---0---0---0---
-----------------
-----------------
  May   you   al -     ways have  air

              Bm7                     A                *Fill #1
13, . , . , . , .   , . , . , . , .   , . , . , . , .   , . , . , . , .
-----------------
-----------------
-----------------
-----------------

-------------3---
-------3---------
-2---------2-----
-3p2-------------

-----------------
---2-------2-----
-----2---------2-
-----2-----2-----

-1---2---4-------
-----4-------4---
-------2-----2---
-------2h4-------

-------------2---
---------2-------
-0-------0-------
-0---0---0---0-2-

-0---2---4-------
-----------------
-----------------
-----------------
  You sing a  song        everybody   can believe

  Esus4                                                 E
17, . , . , . , .   , . , . , . , .   , . , . , . , .   , . , . , . , .
-----------------
-----------------
-----------------
-----------------

-----------------
-----------------
-----------------
-----------------

---2-----2-------
---2-----2-------
---2-----2-------
-----------------

---2-----2-------
---2-----2-------
---2-----2-----x/
-6---------6-----

-----4p2---4---2-
-----4p2---4---2-
-----4p2---4p2-x/
-7---------7-----

-0-------0-------
-0-------0-------
-0-------0-------
-0---0---0---0---

  %
21, . , . , . , .   , . , . , . , .   , . , . , . , .   , . , . , . , .
-0-----4-----2---
-----0-----------
-0-----2---------
-----0----(0)----

-----------------
-----------------
-------------4---
------------(0)--

-1-----4-----2---
-----1-----------
-1-----2---------
-----1--------(1)

-----------------
-----------------
------------4----
-----------------

-----------------
-----------------
-----------------
-----------------

-0---0---0---0---
-0---0---0---0---
-0---0---0---0---
-0---0---0---0---
  Good  day   to        you           Un - cle    tom       cat

                                      Dmaj7
25, . , . , . , .   , . , . , . , .   , . , . , . , .   , . , . , . , .
-0-----0-----0---
-----2---4-------
---------------3p
-2-----------0---

-----------------
-----------------
-------3p2-------
---2-------------

-1-----1----1----
-----2---4-------
---2-------2-----
-----2-----------

-----------------
-----------------
-----4-------4---
-------4-------6-

-----------------
-----------------
-5-------5-------
-5-------2/4-----

-0---0---0---0---
-0---0---0---0---
-----------------
-----------------
  Out   to    drink     the whole world                                You

              Bm7                     A                *Fill #2 (see end)
29, . , . , . , .   , . , . , . , .   , . , . , . , .   , . , . , . , .
-----------------
-----------------
-----------------
-----------------

-------------3---
-------3---------
-2---------2-----
-7---5-----------

-----------------
---2-------2-----
-----2---------2-
-7---5h6---------

-1---2---4-------
-----4-------4---
-------2-----2---
---------7-5-----

-------------2---
---------2-------
-0-------0-------
---0-----0---0-2-

-0---2---4-------
-----------------
-----------------
-----------------

  car-ry  a   tune        for nobody  but yourself               +to coda

  Esus4                                                 E
33, . , . , . , .   , . , . , . , .   , . , . , . , .   , . , . , . , .
-----------------
-----------------
-----------------
-----------------

-----------------
-----------------
-----------------
-----------------

---2-----2-------
---2-----2-------
---2-----2-------
-----------------

---2-----2-------
---2-----2-------
---2-----2-----x/
-6---------6-----

-----4p2---4---2-
-----4p2---4---2-
-----4p2---4p2-x/
-7---------7-----

-0-------0-------
-0-------0-------
-0-------0-------
-0---0---0---0---

(Middle 8)
  A                                   E
37, . , . , . , .   , . , . , . , .   , . , . , . , .   , . , . , . , .
-----0-----0-----
-0-----0---------
---0-----------0-
-----------0-----

---------2-------
-----2-----------
-----2---0-2-----
-----------------

---------------2-
---------2-2---0-
h1-----1---------
---------------1-

-------------2---
-------------2---
-----2-------2---
-----2-------2---

-0---0---0-------
-0---0-----------
-----------------
-----------------

-----------------
-----------------
-0-------0-------
-0-------0-------

  F#m                                 B
41, . , . , . , .   , . , . , . , .   , . , . , . , .   , . , . , . , .
-----2---0-2-----
-2---0-2-----2---
-----------------
-----------------

-----------------
-----------------
-----4-3p2---2-3/
-4-----------4-4\

---2-----1-2---2-
---2---------2---
---4-------------
-------------4-4\

-----4-------4---
-----4---------4-
-4-----3p2---2-3/
-4-----------4-4\

-----------------
-----------------
-2---------2-----
-----2---2-------

/2-------2-------
-2-------2-------
-----------------
-----------------

                                                             ds% al coda+

 +Coda                                                 2/4       3/4
   Esus4                                                E         A
57, . , . , . , .   , . , . , . , .   , . , . , . , .   , . , .   , . , . , .
-----------------
-----------------
-----------------
---------
-------------

-----------------
-----------------
-----------------
---------
-2-----------

---2-----2-------
---2-----2-------
---2-----2-------
---------
-2-----------

---2-----2-------
---2-----2-------
---2-----2-----x/
-6-------
-------------

-----4p2---4---2-
-----4p2---4---2-
-----4p2---4p2-x/
-7-------
-0-----------

-0-------0-------
-0-------0-------
-0-------0-------
-0---0---
-------------
                                                                  Good

  Asus4       Asus2     A             Asus4       Asus2     A
62, . , . , . , .   , . , . , . , .   , . , . , . , .   , . , . , . , .
-----------------
-----------------
-----------------
-----------------

-3---2-------0---
-----------------
-3---2-------0---
-----------------

---------2-------
-----2-----------
---------2-------
-----2-----------

-------------2---
-----2-----2-2---
-------------2---
-----2-----2-2---

-0---0---0---0---
-0---0---0---0---
-0---0---0---0---
-0---0---0---0---

-----------------
-----------------
-----------------
-----------------
 morning good peo -     ple     the   sun is long sail -    ing     the

  Asus4       Asus2     A             Asus4       C
66, . , . , . , .   , . , . , . , .   , . , . , . , .   , . , . , . , .
-----------------
-----------------
-------------0---
-----------------

-3---2-------0---
-----------------
-3---2p0---------
---1-------1-----

---------2-------
-----2-----------
---------2-------
-------0---------

-------------2---
-----2-----2-2---
-----------------
-2-----------2---

-0---0---0---0---
-0---0---0---0---
-0---0---0---3---
-----3---3-------

-----------------
-----------------
-----------------
-----------------
  on- ly clouds you     see     are   carried within

  Bm                A                 E                 E
70, . , . , . , .   , . , . , . , .   , . , . , . , .   , . , . , . , .
-----------------
-----------------
-----------------
---0-------0-----

-3---------3-----
-2---------2-----
-----0-------2---
-------0h2-------

-4---------4-----
-2---------2---0h
-1---1-------1-0h
-1-----------1---

-----4-------4---
-----2-------2---
-----2-------2---
-----2-------2---

-2-------2-------
-0-------0-------
-----------------
-----------------

-----------------
-----------------
-0-------0-------
-0-------0-------
      Soon they'll be blown all   a - way

    Bm                A                 E                 E
74-101. , . , . , .   , . , . , . , .   , . , . , . , .   , . , . , . , .

------------------
-----------------
-----------------
------------------


---Repeat seven times in total, with variations over alternating bass----


*-----------------
-----------------
-----------------
-----------------*


*-----4-------4---
-----2-------2---
-----2-------2---
-----2-------2---*


--2-------2-------
-0-------0-------
-----------------
------------------


------------------
-----------------
-0-------0-------
-0-------0--------

    Wind gonna rise and blow those clouds away
    Wind gonna rise and blow your blues away
    Your sun gonna shine on my back door someday
    Mouth harp solo.......

(Ending)                                                 rit........
102 . , . , . , .   , . ,  . , . , .   , . , . , . , .   , . , . , . , .
12--12--12--12---
12--12-12--12-----
-----------------
-----------------

-----------------
-------11--11-----
12---9-----------
-----------------

---9-------9-----
---9--------------
---9-----9-------
----(6)--7-------

-9---9--12--12---
11--11---10--10---
-9---------9h11--
-9---7---6-------

-----------------
------------------
-----------------
---------7-------

-----------------
------------------
-----------------
-----------------

3/4
106 . , . , .   , . , . , .   , . , . , .   , . , . , .
-----0-------
-----0-------
-----0-------
-0-----------

-3---3---3---
-2-------2---
-1-----------
-0-----------

-4-------4---
-3-------3---
-2-------2---
-1-----------

-------------
-------------
-------------
-------------

-------------
-------------
-------------
-------------

-------------
-------------
-------------
-------------

freetime(!)                                             *Fill #3 (bar 56)
110                                                      , . , . , . , .
-----------------------------
                       
-------5---------

-----------------------------
                       
-----5-----------

-2h3---2p0-------------------
                       
---6-------------

-----------2p0---------------
                       
/7---------------

---------------2-----2---/7--
                       
-0---0---0---4-4-

-----------------3---0-------
                       
-----------------
                (bend)

Happy Good Morning Blues
~~~~~~~~~~~~~~~~~~~~~~~~
Good day to you, fat balloon man
May you always have air
You sing a song everybody can believe
Good day to you, uncle tom cat
Out to drink the whole world
You carry a tune for nobody but yourself
Good day to you, herr policeman
May your boots always fit
Someday you'll find a song you can believe
Good morning good people
The sun is long sailing
The only clouds you see
Are carried within-
Soon they'll be blown all away
Wind gonna rise and blow those clouds away
Wind gonna rise and blow your blues away
Your sun gonna shine on my back door someday



 


/
How To Set Up Higher Praise As Your Home Page
Copyright 1999, Higher Praise HigherPraise,Inc. All rights reserved. Terms of Use

Enjoy A Life Changing Experience

 
 
 
HigherPraise, Higher Praise, HigherPraise, Higher Praise, HigherPraise

Members..Sign Up. LogIn

 
 

Higher Praise Other Sites
 
 

HigherPraise.org/
Praise And Worship
www.higherpraise.org

HigherPraise.net
Christian Resources
www.higherpraise.net

HigherPraiseTube.com
Videos And Audios
www.higherpraisetube.com.


ChristianLyrics.org

Lyrics And Chrords
www.christianlyrics.org

ChristianChordsLyrics

Lyrics And Chrords
www.christianchordslyrics.com

ChristianChordLyrics

Lyrics And Chrords
www.christianchordlyrics.com

WorshipLyrics.org
10.000 Illustrations
www.worshiplyrics.org

WorshipLyrics.net
10.000 Illustrations
www.worshiplyrics.net

PraiseLyrics.com
PowerPoint Lyrics

www.praiselyrics.com

PraiseLyrics.org
PowerPoint Lyrics

www.praiselyrics.org

1GodTube.com
Chistian Videos

www1godtube..com

OneGodTube.com
Chistian Videos

www.onegodtube..com

 

/
Copyright 1999 - 2019, Higher Praise™ HigherPraise™,Inc. All rights reserved. Terms of Use