Fell In Love With The Game Tabs by Blindside

Higher Praise - Guitar Chords, Lyrics  GuitarTabs -  Praise nad Worship Music And Christian Songs

Higher Praise - Guitar Tabs, Guitar Chords, Lyrics
   Lyrics, Chords And Tabs
   Popular Lyrics Chords Tab
   Power Point Lyrics
   Praise & Worship Music
   Christian Music Videos
   15900 Videos & Audios
   Midi Files
   Worship Questions
   Christmas Chords, Lyrics
   Lyrics, Chords Tabs Rated

Sermon Outlines And Audio Sermons
   9344 Sermon Outlines
   N.T. Sermon Outlines
   O.T. Sermon Outlines
   Special Guest Outlines
   10.000 Illustrations
   Sunday School Studies
   Bible College Studies
   Greatest Preachers
   Bible Research Tools
Audio Sermons
   2895 Audio Sermons
   85 Sermon Videos
   291 Special Guests Serm

   Complete Audio Bible
Higher Praise Sunday School Teaching
   Children's NT Studies
   Children's OT Studies

   98 Children's Midis
   Gospel For Kids Movie
   Children's JESUS Film
Higher Praise Christian Video Library ,Videos
   Christian Television
   TBN TV Live
   15,000 Videos - HP Tube
   712 Youth Music Vids
  Christian Video Library
   Praise Videos #1 & #2
   85 Sermon Videos
   Prophecy Film -Videos
   JESUS Film -Video
   Childrens JESUS Film
   Gospel For Kids Movie
   Passion Of The Christ
   Noah, Sodom, Sinai, Ark
   Tsunami Videos Photos
News And Information
   Testimonies
   Submit Lyrics, Tabs, Serm
   10.000 Illustrations
   Bible College Course
   Clipart & Web Graphics
   Greatest Preachers
   Complete Talking Bible
   Christian Chat Rooms
   Links Church Resource
   HP Statement Of Faith
Download Clipart
   Audio Sermons
   Clipart & Web Graphics
   Church Administration
   Bible Study Software
   Screen Savers Software
   Verse A Day Software
   Educational Games
   Trade Center Photos

   Soft. Search Engine
Higher Praise News
   Current News
    Archived News
   Submit News
   Newsletter   Higher Praise Interact Prayer
   Prayer For All Needs
   
Submit Lyrics, Sermons
   
Contact Higher Praise
   
Advertising 
   Privacy Policy
//
He Died For You,  Click For Answer! This Is Who Jesus Is Video

'
 
0-9 A B C D E F G H I J K L M N O P Q R S T U V W X Y Z
.

//
Click For Printable...Version Of This File
 

Fell In Love With The Game


by Blindside

Share |



"Eye of the Storm"
by Blindside
About A Burning Fire (2003/Elektra/3 Points)

tabulture interpreted/written/transcribed by Zak Hall


Note: this is my best interpretation of what is being played, and is probably in some 
inaccurate, and I am aware of that, however, I put this out here because I believe it
is enough to place out there, and is probably more accurate than most unofficial tabs,
because I am avidly against stupidly inaccurate tabs.


legend:
#'s (1,2,3...) = fret number / note to be held, not finger placed there necessarily
x =palm mute
x##...=palm mute fret number

 =end of phrase/measure(s)


 = repeat phrase/measure(s)
(#) = harmonics (on that fret)
x(#) = harmonic strum
# + # = hammer-on
# * # = pull-off

# ^ (#) = bend note up (#) steps
# / # = slide up
# \ # = slide down
$# = sweep pick
[#] = optional (would fit, and/or sounds like it's being played, though not certain)
#______ = hold out

Tuning:
Down a half-step (low-to-high)
(Eb, Ab, Db, Gb, Bb, eb)
Note: For future reference, through out this tab, the strings will be labeled without 
flats, however they are still in the tuning above, this merely saves me, the tabber,
time.

****NOTE**** 
this tab has been corrected by the author

Verse Riff: (slightly distorted, then fully distorted)
("I think I've stayed for the last time...") starts on "stayed"

3/4
e
-------------------------------------------------------------------------------------------

B
-------------------------------------------------------------------------------------------

G
-(first time vocal intro 1x measure)              
555555
555555
555555
5+7*5----------

D
--------------------------------------------------
333333
333333
333333
---------75*0--

A
-------------------------------------------------------------------------------------------

E
-------------------------------------------------------------------------------------------


e
--------------------------------------------

B
--------------------------------------------

G
--------------------------------------------

D
---777777
777777
-888888-
---------------

A
---555555
555555
-666666-
101010101010---

E
---------
------
--------
-8-8-8-8-8-8---


e
-----------------------------------------------

B
-----------------------------------------------

G
-----------------------------------------------

D
-101010101010
-101010101010
777777
---------

A
-8-8-8-8-8-8-
-8-8-8-8-8-8-
555555
333333---

E
-------------
-------------
------
111111---


e
---------------------------------

B
---------------------------------

G
---------------------------------

D
-888888
888888
777777
777777
 (I think the 8 to 7 is correct)
A
-888888
888888
888888
888888

E
-666666
666666
666666
666666


Pre-Chorus Riff: (clean)
3/4 (each measure represented in this riff is actually two)
e
-----------------------------------

B
-----------------------------------

G
-----------------------------------

D
-----------------------------------

A
----------
--------
-(7)---------

E
----(12)--
-(7)----
-------------



Chorus Riff: (distortion)
3/4
e
-----------------------------------------------------------

B
-----------------------------------------------------------

G
-----------------------------------------------------------

D
-101010101010-
-101010101010-
-9-9-9-9-9-9--
-9-9-9-9-9-9--

A
-101010101010-
-101010101010-
-101010101010-
-101010101010-

E
-8-8-8-8-8-8--
-8-8-8-8-8-8--
-7-7-7-7-7-7--
-7-7-7-7-7-7--


e
--------------------------------

B
--------------------------------

G
--------------------------------

D
------
-2----------------------

A
-[14\]
_2----------------------

E
-12 \ 
_0---0012012012001200---


e
-----------------------------------------------------------

B
-----------------------------------------------------------

G
-----------------------------------------------------------

D
-101010101010-
-101010101010-
-9-9-9-9-9-9--
-9-9-9-9-9-9--

A
-101010101010-
-101010101010-
-101010101010-
-101010101010-

E
-8-8-8-8-8-8--
-8-8-8-8-8-8--
-7-7-7-7-7-7--
-7-7-7-7-7-7--


e
----------------------------------------

B
----------------------------------------

G
----------------------------------------
(hold then bend at the end)
D
-------
------
777777
-9___^(1/2)----

A
-------
555555
------
---------------

E
-333333
------
------
---------------


e
-----------------------------------------------------------

B
-----------------------------------------------------------

G
-----------------------------------------------------------

D
-101010101010-
-101010101010-
-9-9-9-9-9-9--
-9-9-9-9-9-9--

A
-101010101010-
-101010101010-
-101010101010-
-101010101010-

E
-8-8-8-8-8-8--
-8-8-8-8-8-8--
-7-7-7-7-7-7--
-7-7-7-7-7-7--


e
--------------------------------

B
--------------------------------

G
--------------------------------

D
------
-2----------------------

A
-[14\]
 2----------------------

E
-12 \ 
 0---0012012012001200---


e
------------------------------------------------------------------

B
------------------------------------------------------------------

G
------------------------------------------------------------------

D
-101010101010-
-101010101010-
-9-9-9-9-9-9--
-9-9-9-9-9-9--
-2___-

A
-101010101010-
-101010101010-
-101010101010-
-101010101010-
-2___-

E
-8-8-8-8-8-8--
-8-8-8-8-8-8--
-7-7-7-7-7-7--
-7-7-7-7-7-7--
-0___-



Bridge Riff: (clean)
3/4 (each measure represented in this riff is actually two)
e
-----------------------------------

B
-----------------------------------

G
-----------------------------------

D
-----------------------------------

A
----------
--------
-(7)---------

E
----(12)--
-(7)----
-------------


e
--------------------------------------------

B
--------------------------------------------

G
--4-_
----
--4-----
--5-
-----
--------

D
-----
---2
--[or 9]
----
--5--
--6-----

A
-----
----
--------
----
-----
--------

E
--------------------------------------------


e
-------------------------------------
(build up here, semi-strumming)
B
-------------------------------------

G
--4--
-----4----
-4-----4----4-----

D
-----
--2-----2-
----2------2------

A
-----
----[0]---
[0]---[0--0-0]----

E
-------------------------------------


e
-----------------------------

B
-----------------------------

G
--4--
-----
--4__----------
______
D
-----
--2--
-----
--------

A
-----
-----
-[7]_----------
______
E
-[12]
-[7]-
-----
--------
(build up to chorus)

Chorus Riff {end variation}: (distortion)
3/4 gtr1
e
-----------------------------------------------------------

B
-----------------------------------------------------------

G
-----------------------------------------------------------

D
-101010101010-
-101010101010-
-9-9-9-9-9-9--
-9-9-9-9-9-9--

A
-101010101010-
-101010101010-
-101010101010-
-101010101010-

E
-8-8-8-8-8-8--
-8-8-8-8-8-8--
-7-7-7-7-7-7--
-7-7-7-7-7-7--


e
--------------------------------

B
--------------------------------

G
--------------------------------

D
------
-2----------------------

A
-[14\]
 2----------------------

E
-12 \ 
 0---0012012012001200---


e
-----------------------------------------------------------

B
-----------------------------------------------------------

G
-----------------------------------------------------------

D
-101010101010-
-101010101010-
-9-9-9-9-9-9--
-9-9-9-9-9-9--

A
-101010101010-
-101010101010-
-101010101010-
-101010101010-

E
-8-8-8-8-8-8--
-8-8-8-8-8-8--
-7-7-7-7-7-7--
-7-7-7-7-7-7--


e
----------------------------------------

B
----------------------------------------

G
----------------------------------------
(hold then bend at the end)
D
-------
------
777777
-9___^(1/2)----

A
-------
555555
------
---------------

E
-333333
------
------
---------------


e
-----------------------------------------------------------

B
-----------------------------------------------------------

G
-----------------------------------------------------------

D
-101010101010-
-101010101010-
-9-9-9-9-9-9--
-9-9-9-9-9-9--

A
-101010101010-
-101010101010-
-101010101010-
-101010101010-

E
-8-8-8-8-8-8--
-8-8-8-8-8-8--
-7-7-7-7-7-7--
-7-7-7-7-7-7--


e
--------------------------------

B
--------------------------------

G
--------------------------------

D
------
-2----------------------

A
-[14\]
 2----------------------

E
-12 \ 
 0---0012012012001200---


e
-----------------------------------------------------------
-------
------------
------------

B
-----------------------------------------------------------
-------
------------
------------

G
-----------------------------------------------------------
-------
------------
------------

D
-101010101010-
-101010101010-
-9-9-9-9-9-9--
-9-9-9-9-9-9--
-7_____
x9x9x9x9x9x9
x5x5x5x5x5x5

A
-101010101010-
-101010101010-
-101010101010-
-101010101010-
-7_____
x9x9x9x9x9x9
x5x5x5x5x5x5

E
-8-8-8-8-8-8--
-8-8-8-8-8-8--
-7-7-7-7-7-7--
-7-7-7-7-7-7--
-5_____
x7x7x7x7x7x7
x3x3x3x3x3x3


 (!!!!-----------------------------------------
start gtr2 here, see below)
e
-----------------------------------------------------------

B
-----------------------------------------------------------

G
-----------------------------------------------------------

D
-101010101010-
-101010101010-
-9-9-9-9-9-9--
-9-9-9-9-9-9--

A
-101010101010-
-101010101010-
-101010101010-
-101010101010-

E
-8-8-8-8-8-8--
-8-8-8-8-8-8--
-7-7-7-7-7-7--
-7-7-7-7-7-7--


e
--------------------------------

B
--------------------------------

G
--------------------------------

D
------
-2----------------------

A
-[14\]
 2----------------------

E
-12 \ 
 0---0012012012001200---


e
-----------------------------------------------------------

B
-----------------------------------------------------------

G
-----------------------------------------------------------

D
-101010101010-
-101010101010-
-9-9-9-9-9-9--
-9-9-9-9-9-9--

A
-101010101010-
-101010101010-
-101010101010-
-101010101010-

E
-8-8-8-8-8-8--
-8-8-8-8-8-8--
-7-7-7-7-7-7--
-7-7-7-7-7-7--


e
----------------------------------------

B
----------------------------------------

G
----------------------------------------
(hold then bend at the end)
D
-------
------
777777
-9___^(1/2)----

A
-------
555555
------
---------------

E
-333333
------
------
---------------


e
-----------------------------------------------------------

B
-----------------------------------------------------------

G
-----------------------------------------------------------

D
-101010101010-
-101010101010-
-9-9-9-9-9-9--
-9-9-9-9-9-9--

A
-101010101010-
-101010101010-
-101010101010-
-101010101010-

E
-8-8-8-8-8-8--
-8-8-8-8-8-8--
-7-7-7-7-7-7--
-7-7-7-7-7-7--


e
--------------------------------

B
--------------------------------

G
--------------------------------

D
------
-2----------------------

A
-[14\]
 2----------------------

E
-12 \ 
 0---0012012012001200---


e
------------------------------------------------------------------

B
------------------------------------------------------------------

G
------------------------------------------------------------------

D
-101010101010-
-101010101010-
-9-9-9-9-9-9--
-9-9-9-9-9-9--
-2___-

A
-101010101010-
-101010101010-
-101010101010-
-101010101010-
-2___-

E
-8-8-8-8-8-8--
-8-8-8-8-8-8--
-7-7-7-7-7-7--
-7-7-7-7-7-7--
-0___-


gtr2 in chorus end under the main track:
e
-----------------------------------------------------------------

B
----5____
5_____
----------
---5__
5__
__^(1/2)
__v(1/2)---

G
---------
------
-2___4____
------
---
--------
-----------

D
-----------------------------------------------------------------

A
-----------------------------------------------------------------

E
-----------------------------------------------------------------


e
-------------------------------------------------------------

B
----5____
5_____
-14_____2-
---5__
5___7-8-7-3
5--------
______
G
---------
------
-14\_____2
------
-----------
---------

D
---------
------
-14\_____2
------
-----------
---------

A
-------------------------------------------------------------

E
-------------------------------------------------------------


ORDER:
(short vocal intro)
Verse                      x2
Pre-chorus                 x1
Chorus                     x1
Verse                      x2
Pre-chorus                 x1
Chorus                     x1
Bridge                     x1
Chorus {end variation}     x1
(fade-out)
 


/
How To Set Up Higher Praise As Your Home Page
Copyright 1999, Higher Praise HigherPraise,Inc. All rights reserved. Terms of Use

Enjoy A Life Changing Experience

 
 
 
HigherPraise, Higher Praise, HigherPraise, Higher Praise, HigherPraise

Members..Sign Up. LogIn

 
 

Higher Praise Other Sites
 
 

HigherPraise.org/
Praise And Worship
www.higherpraise.org

HigherPraise.net
Christian Resources
www.higherpraise.net

HigherPraiseTube.com
Videos And Audios
www.higherpraisetube.com.


ChristianLyrics.org

Lyrics And Chrords
www.christianlyrics.org

ChristianChordsLyrics

Lyrics And Chrords
www.christianchordslyrics.com

ChristianChordLyrics

Lyrics And Chrords
www.christianchordlyrics.com

WorshipLyrics.org
10.000 Illustrations
www.worshiplyrics.org

WorshipLyrics.net
10.000 Illustrations
www.worshiplyrics.net

PraiseLyrics.com
PowerPoint Lyrics

www.praiselyrics.com

PraiseLyrics.org
PowerPoint Lyrics

www.praiselyrics.org

1GodTube.com
Chistian Videos

www1godtube..com

OneGodTube.com
Chistian Videos

www.onegodtube..com

 

/
Copyright 1999 - 2019, Higher Praise™ HigherPraise™,Inc. All rights reserved. Terms of Use