Solution Bass Tab Tabs by Hillsong United

Higher Praise - Guitar Chords, Lyrics  GuitarTabs -  Praise nad Worship Music And Christian Songs

Higher Praise - Guitar Tabs, Guitar Chords, Lyrics
   Lyrics, Chords And Tabs
   Popular Lyrics Chords Tab
   Power Point Lyrics
   Praise & Worship Music
   Christian Music Videos
   15900 Videos & Audios
   Midi Files
   Worship Questions
   Christmas Chords, Lyrics
   Lyrics, Chords Tabs Rated

Sermon Outlines And Audio Sermons
   9344 Sermon Outlines
   N.T. Sermon Outlines
   O.T. Sermon Outlines
   Special Guest Outlines
   10.000 Illustrations
   Sunday School Studies
   Bible College Studies
   Greatest Preachers
   Bible Research Tools
Audio Sermons
   2895 Audio Sermons
   85 Sermon Videos
   291 Special Guests Serm

   Complete Audio Bible
Higher Praise Sunday School Teaching
   Children's NT Studies
   Children's OT Studies

   98 Children's Midis
   Gospel For Kids Movie
   Children's JESUS Film
Higher Praise Christian Video Library ,Videos
   Christian Television
   TBN TV Live
   15,000 Videos - HP Tube
   712 Youth Music Vids
  Christian Video Library
   Praise Videos #1 & #2
   85 Sermon Videos
   Prophecy Film -Videos
   JESUS Film -Video
   Childrens JESUS Film
   Gospel For Kids Movie
   Passion Of The Christ
   Noah, Sodom, Sinai, Ark
   Tsunami Videos Photos
News And Information
   Testimonies
   Submit Lyrics, Tabs, Serm
   10.000 Illustrations
   Bible College Course
   Clipart & Web Graphics
   Greatest Preachers
   Complete Talking Bible
   Christian Chat Rooms
   Links Church Resource
   HP Statement Of Faith
Download Clipart
   Audio Sermons
   Clipart & Web Graphics
   Church Administration
   Bible Study Software
   Screen Savers Software
   Verse A Day Software
   Educational Games
   Trade Center Photos

   Soft. Search Engine
Higher Praise News
   Current News
    Archived News
   Submit News
   Newsletter   Higher Praise Interact Prayer
   Prayer For All Needs
   
Submit Lyrics, Sermons
   
Contact Higher Praise
   
Advertising 
   Privacy Policy
//
He Died For You,  Click For Answer! This Is Who Jesus Is Video

'
 
0-9 A B C D E F G H I J K L M N O P Q R S T U V W X Y Z
.

//
Click For Printable...Version Of This File
 

Solution Bass Tab


by Hillsong United

Share |



Hillsong United Ė Solution (bass tab)

Standard Tuning - EADG
I didnít include strumming patterns in here, thatís easy enough to figure out. Iím not 
lie, I donít have a bass in front of me right now, but Iím at work and Iím bored, so Iíll 
fix mistakes later.
At some parts, I play the 9íth fret instead of just playing the next string up on the 
fret.  Thatís just how I play bass, because you can do slides over 9 frets of range 
of 2, but other than that, this tab shouldnít be too weird for you. Enjoy, and God Bless!

Intro

G
-----------------------

D
-----------------------

A
-----------------------
   times a bunch
E
-9-9-9-9-9-9-9-9-------


G
-----------------------------------------------------------

D
-----------------------------------------------------------

A
--------------77777777--------------99999999---------------
  X2
E
-44444444--------------77777777----------------------------


G
-13~~~------------------------

D
------------------------------

A
------------------------------

E
------------------------------


G
-----------------------------------------------------

D
-----------------------------------------------------

A
----------------- -9999999999999999------------------

E
-99999999-22222222-----------------------------------


G
----------------------------------------------------------

D
----------------------------------------------------------

A
--------------77777777--------------99999999--------------
  X2
E
-44444444--------------77777777---------------------------


G
----------------------------------------------------------

D
----------------------------------------------------------

A
----------------------------------------------------------

E
-00000000-99999999-2222222222222222-----------------------


G
----------------------------------------------------------

D
----------------------------------------------------------

A
----------------------------------------444444444---------

E
-00000000-44444444-22222222-------------------------------


G
----------------------------------------------------------

D
----------------------------------------------------------

A
----------------------------------------------------------

E
-00000000/99999999\0000000000000000-----------------------


G
-----------------------------------------------------------

D
-----------------------------------------------------------

A
-----------------------------------------------------------
 X2
E
-44444444-00000000-99999999-22222222-----------------------


G
----------------------------------------------------------

D
----------------------------------------------------------

A
----------------------------------------------------------

E
-00000000-99999999-2222222222222222-----------------------


G
----------------------------------------------------------

D
----------------------------------------------------------

A
----------------------------444444444---------------------

E
-00000000-44444444-22222222-------------------------------


G
----------------------------------------------------------

D
----------------------------------------------------------

A
----------------------------------------------------------

E
-00000000-99999999-2222222222222222-----------------------


G
----------------------------------------------------------

D
----------------------------------------------------------

A
----------------------------------------------------------

E
-00000000-44444444-22222222-33333333----------------------


G
-----------------------------------------------------------

D
-----------------------------------------------------------

A
-----------------------------------------------------------
 X2
E
-44444444-00000000-99999999-22222222-----------------------


G
-----------------------------------------------------------

D
-----------------------------------------------------------

A
-----------------------------------------------------------
 X2
E
-44444444-00000000-99999999-22222222-----------------------


G
-----------------------------------------------------------

D
-----------------------------------------------------------

A
-----------------------------------------------------------
 X2
E
-44444444-00000000-99999999-22222222-----------------------


G
---------------------------------------2-3-2--------------

D
-----666-44--- -666-44------666-44-----------3------------

A
----------------------------------------------------------
 X2
E
-444--------000--------777---------2222-------------------


^^^^(thatís not really how it goes, but thatís how I play it, it sounds good)

G
--------------------------------------

D
--------------------------------------

A
--------------------------------------

E
-0~~~~---9~~~~---2~~~~----------------


G
----------------------------------------------------------

D
----------------------------------------------------------

A
----------------------------------------444444444---------

E
-00000000-44444444-22222222-------------------------------



Then it just does the same stuff it did earlier and the outro bass riff is the same only 
down a string

G
-------------------------------------------------------------------

D
-------------------------------------------------------------------

A
------666-44-------666-44-------666-44-------1-2-1-----------------
 X2
E
-444-----------000----------777-------2222---------2---------------

 


/
How To Set Up Higher Praise As Your Home Page
Copyright 1999, Higher Praise HigherPraise,Inc. All rights reserved. Terms of Use

Enjoy A Life Changing Experience

 
 
 
HigherPraise, Higher Praise, HigherPraise, Higher Praise, HigherPraise

Members..Sign Up. LogIn

 
 

Higher Praise Other Sites
 
 

HigherPraise.org/
Praise And Worship
www.higherpraise.org

HigherPraise.net
Christian Resources
www.higherpraise.net

HigherPraiseTube.com
Videos And Audios
www.higherpraisetube.com.


ChristianLyrics.org

Lyrics And Chrords
www.christianlyrics.org

ChristianChordsLyrics

Lyrics And Chrords
www.christianchordslyrics.com

ChristianChordLyrics

Lyrics And Chrords
www.christianchordlyrics.com

WorshipLyrics.org
10.000 Illustrations
www.worshiplyrics.org

WorshipLyrics.net
10.000 Illustrations
www.worshiplyrics.net

PraiseLyrics.com
PowerPoint Lyrics

www.praiselyrics.com

PraiseLyrics.org
PowerPoint Lyrics

www.praiselyrics.org

1GodTube.com
Chistian Videos

www1godtube..com

OneGodTube.com
Chistian Videos

www.onegodtube..com

 

/
© Copyright 1999 - 2019, Higher Praise™ HigherPraise™,Inc. All rights reserved. Terms of Use