Human Clay Album Bass Tab Tabs by Creed

Higher Praise - Guitar Chords, Lyrics  GuitarTabs -  Praise nad Worship Music And Christian Songs

Higher Praise - Guitar Tabs, Guitar Chords, Lyrics
   Lyrics, Chords And Tabs
   Popular Lyrics Chords Tab
   Power Point Lyrics
   Praise & Worship Music
   Christian Music Videos
   15900 Videos & Audios
   Midi Files
   Worship Questions
   Christmas Chords, Lyrics
   Lyrics, Chords Tabs Rated

Sermon Outlines And Audio Sermons
   9344 Sermon Outlines
   N.T. Sermon Outlines
   O.T. Sermon Outlines
   Special Guest Outlines
   10.000 Illustrations
   Sunday School Studies
   Bible College Studies
   Greatest Preachers
   Bible Research Tools
Audio Sermons
   2895 Audio Sermons
   85 Sermon Videos
   291 Special Guests Serm

   Complete Audio Bible
Higher Praise Sunday School Teaching
   Children's NT Studies
   Children's OT Studies

   98 Children's Midis
   Gospel For Kids Movie
   Children's JESUS Film
Higher Praise Christian Video Library ,Videos
   Christian Television
   TBN TV Live
   15,000 Videos - HP Tube
   712 Youth Music Vids
  Christian Video Library
   Praise Videos #1 & #2
   85 Sermon Videos
   Prophecy Film -Videos
   JESUS Film -Video
   Childrens JESUS Film
   Gospel For Kids Movie
   Passion Of The Christ
   Noah, Sodom, Sinai, Ark
   Tsunami Videos Photos
News And Information
   Testimonies
   Submit Lyrics, Tabs, Serm
   10.000 Illustrations
   Bible College Course
   Clipart & Web Graphics
   Greatest Preachers
   Complete Talking Bible
   Christian Chat Rooms
   Links Church Resource
   HP Statement Of Faith
Download Clipart
   Audio Sermons
   Clipart & Web Graphics
   Church Administration
   Bible Study Software
   Screen Savers Software
   Verse A Day Software
   Educational Games
   Trade Center Photos

   Soft. Search Engine
Higher Praise News
   Current News
    Archived News
   Submit News
   Newsletter   Higher Praise Interact Prayer
   Prayer For All Needs
   
Submit Lyrics, Sermons
   
Contact Higher Praise
   
Advertising 
   Privacy Policy
//
He Died For You,  Click For Answer! This Is Who Jesus Is Video

'
 
0-9 A B C D E F G H I J K L M N O P Q R S T U V W X Y Z
.

//
Click For Printable...Version Of This File
 

Human Clay Album Bass Tab


by Creed

Share |



Band- Creed
Album- Human Clay

Track Listings:
1.Are You Ready?
2.What If
3.Beautiful
4.Say I
5.Wrong Way
6.Faceless Man
7.Never Die
8.With Arms Wide Open
9.Higher
10.Wash Away Those Years
11.Inside Us All

---------------------------------------------------------

1.ARE YOU READY?

Don't Know

2.WHAT IF

Intro X 1
G-------------------------------------------------------------------

D-------------------------------------------------------------------

A--5-----------------------5----------------------------------------

D-----7--8--8--7--7--7--7-----77--78--8--7--7--7--7--8----8-7----7--



Verse X 8
G-------
----------------------------

D-------
----------------------------

A-------
--------------3h5---1-------

D--14\--
--0---0-3h5-0-----0-----2---



Chorus
G--------------------------------------------

D--------------------------------------------

A--1---1---1-1---1-----3--33--33---1---------

D--------------0---0-0-----------0----2------



G--------------------------------------------

D------------------------------0-------------

A-------3-5-7-5----1---------3---7-5----1----

D--0--0----------0---2--0--0----------0---2--



G--------------------------------------------

D--------------------------5-----------------

A--1---1---1-1-0-1-----3-------3---1---------

D------------------0-0-----------0---2-------



G--------------------------------------------

D------------------------------0-------------

A-------3-5-7-5----1---------3---7-----------

D--0--0----------0---2--0--0-------14\-------



Verse X 7
G------------------------------

D------------------------------

A----------------3h5---1-------

D----0---0-3h5-0-----0-----2---



8th Time
G---------

D---------

A---------

D---x-----



Chorus
G--------------------------------------------

D--------------------------------------------

A--1---1---1-1---1-----3--33--33---1---------

D--------------0---0-0-----------0----2------



G--------------------------------------------

D------------------------------0-------------

A-------3-5-7-5----1---------3---7-5----1----

D--0--0----------0---2--0--0----------0---2--



G--------------------------------------------

D-----------------------------5--------------

A--1---1---1-1-0-1--0-1h3-3-------3---1------

D-----------------------------------0---2----



G--------------------------------------------

D------------------------------0-------------

A-------3-5-7-5----1---------3-----7---5-----

D--0--0----------0---2--0--0-----------------



Bridge
G------------------------------------------

D------------------------------------------

A---------------------------------------6--

D--0--0---0--0-0-------3--0---0-0-1-0-0----



G------------------------------------------

D------------------------------------------

A---------------------------------------6--

D--0--0---0-4-0-2-0-3--3--0---0-0-1-0-0----



G----------------------------------------------

D----------------------------------------------

A----------------------------------------------

D--0-12-13-0-16-15-0-12-0-16-15-0-10-12-15-13--



G----------------------------------------------

D----------------------------------------------

A----------------------------------------------

D--0-12-13-0-16-15-0-12-0-10-10-12-12-15-15-13-



G----------------------------------------------

D----------------------------------------------

A----------------------------------------------

D--0-12-13-0-16-15-0-12-0-16-15-0-10-12-15-13--



G----------------------------------------------

D----------------------------------------------

A----------------------------------------------

D--0-12-13-0-16-15-0-12-0-10-10-12-12\---------



G----------------------------------------------

D----------------------------------------------

A----------------------------------------------

D--0-12-13-0-16-15-0-12-0-16-15-0-10-12-15-13--



G----------------------------------------------

D----------------------------------------------

A----------------------------------------------

D--0-12-13-0-16-15-0-12-0-10-10-12-12-15-15-13-



G----------------------------------------------

D----------------------------------------------

A----------------------------------------------

D--0-12-13-0-16-15-0-12-0-16-15-0-10-12-15-13--



G----------------------------------------------

D----------------------------------------------

A----------------------------------------------

D--0-12-13-0-16-15-0-12-13-12-12-12-10-10-10---



G----------------------------------------------

D----------------------------------------------

A----------------------------------------------

D--0-12-13-0-16-15-0-12-0-16-15-0-10-12-15-13--



G----------------------------------------------

D----------------------------------------------

A----------------------------------------------

D--0-12-13-0-16-15-0-12-0-10-10-12-12-15-15-13-



G----------------------------------------------

D----------------------------------------------

A----------------------------------------------

D--0-12-13-0-16-15-0-12-0-16-15-0-10-12-15-13--



G----------------------------------------------

D----------------------------------------------

A----------------------------------------------

D--0-12-13-0-16-15-0-12-0-10-10-12-12-15-15-13-



G----------------------------------------------

D----------------------------------------------

A----------------------------------------------

D--0-12-13-0-16-15-0-12-0-16-15-0-10-12-15-13--



G----------------------------------------------

D----------------------------------------------

A----------------------------------------------

D--0-12-13-0-16-15-0-12-0-10-10-12-12-15-15-13-



WHAT IF!! X 4
G-----------------------------------------------------------

D-----------------------------------------------------------

A--------------------------------------------------------7--

D--0--0-0-4-0-0-0--0-1-0-3-0-4-3--0-0-0-4-0---0-1-0--0-0----



Chorus
G--------------------------------------------

D--------------------------------------------

A--1---1---1-1-0-1-----3--33--33---1---------

D------------------0-0-----------0----2------



G--------------------------------------------

D------------------------------0-------------

A-------3-5-7-5----1---------3---7-5----1----

D--0--0----------0---2--0--0----------0---2--



G--------------------------------------------

D--------------------------------------------

A--1---1---1-1-0-1-----3--33--33---1---------

D------------------0-0-----------0----2------



G----------------------------------------------------

D----------------------------------------------------

A-------3-5-7-5----1---------------------------------

D--0--0----------0---2--0--0-0-3-0--0-3-0-3-0-3-5-5--



G--------------------------------------------

D--------------------------------------------

A--1---1---1-1---1-----3--33--33---1---------

D--------------0---0-0-----------0----2------



G----------------------------------------------

D----------------------------------------------

A-------3-5-7-5----1-------5-5-5-7-7-7-5---7\--

D--0--0----------0---2--0----------------0-----



Short WHAT IF!! X 1
G-----------------------------------------------------------

D-----------------------------------------------------------

A--------------------------------------------------------7--

D----------------------------4-3--0-0-0-4-0---0-1-0--0-0----


WHAT IF!! X 3
G-----------------------------------------------------------

D-----------------------------------------------------------

A--------------------------------------------------------7--

D--0--0-0-4-0-0-0--0-1-0-3-0-4-3--0-0-0-4-0---0-1-0--0-0----



Hold last note
G--------------

D--------------

A----7*--------

D--------------


3.BEAUTIFUL

Intro:

G-------------------

D-------------------

A-5--55--55--55--55-
 4x
E-------------------

B-------------------


G------------------------------------------------------

D---------------------3----3h5---2---------------------

A------------------------------------------------------
 1x
E-------------------------------------3h5-5------------

B-3--h4--444-3-444-33--3-3----3-3---33------3--h4-444--


1rst Verse

G--------------------

D--------------------

A-55--55--55--55--55-
 4x
E--------------------

B--------------------


Chorus:

G------------------------------------------------------

D---------------------3----3h5---2---------------------

A------------------------------------------------------
 3x
E-------------------------------------3h5-5------------

B-3--h4--444-3-444-33--3-3----3-3---33------3--h4-444--


Bridge

G-----------

D-----------

A--------5--
 8x
E-----------

B-3-3--3----


Before 2nd Verse


G-----------------------------------------------------------------------

D-------------3-3--------------7-7---------------7-7--------------------

A-55--55--55-5---5--55--55-55-5---5--55--55--55-5---5--55--55--333-h5---

E-----------------------------------------------------------------------

B-----------------------------------------------------------------------


2nd Verse:"In your mind..."

G--------------------

D--------------------

A-55--55--55--55--55-
 10x
E--------------------

B--------------------


2nd Chorus                                           End of Third Part ADD

G----------------------------------------------------    ----------------

D---------------------3----3h5---2-------------------    ----------------

A---------------------------------------------------- 3x 121212-131313/5-

E-------------------------------------3h5-5----------    ----------------

B-3--h4--444-3-444-33--3-3----3-3---33------3--h4-444    ----------------


Bridge

G------------

D------------

A--------5 1-
6x
E------------

B-3-3--3-----


End Verse Interlude:

G----------------------------------------

D----------------------------------------

A-5-5-5-5-5-5-5-5\10-10-10-10-10/9-9-9-9-

E----------------------------------------

B----------------------------------------


Interlude                                                             Play in 2nd Time

G------------------------------------------------------------------    ------------------

D-------------------------------------------------------4----------    7-5-4-5--7-7-7-7--

A----------------------2--2-2-2--2-2-2-2-2-4h5--5--5-3-5-5-3-5--5-- 3x --------0---------
 1x
E-3--3-3-3-2h3-3-3-3-3--------------------------------------------5    ------------------

B------------------------------------------------------------------    ------------------


Chorus                                               End of fourth part ADD

G---------------------------------------------------    ----------------

D---------------------3----3h5---2------------------    ----------------

A--------------------------------------------------- 4x 121212-131313/5-

E-------------------------------------3h5-5---------    ----------------

B-3--h4--444-3-444-33--3-3----3-3--33------3--h4-444    ----------------


Bridge

G------------

D------------

A--------5 1-
6x
E------------

B-3-3--3-----


End Part

G----------------------------------

D----------------------------------

A-5-5-5-5-5-5-5-5-5--5--5--5--5----

E----------------------------------

B--------------------------------3-


4.SAY I

CHORUS

G
-----------------------------------------

D
------------------------7-0--5-0--7-00--7

A
----3-------1----1-----------------------

D
333---0h1-1---11---00-0------------------


G
-----------------------------------------

D
------------------------7-0-5-0-7-----5h7

A
----3-------1----1----------------5h7----

D
333---0h1-1---11---00-0------------------


G
-----------------------------------------

D
------------------------7-7-5h7-7h8p7-5h7

A
----3-------1----1-----------------------

D
333---0h1-1---11---00-0------------------


G
--------------------

D
--------------------

A
----3-------1----1--

D
333---0h1-1---11---0

=============================================================
POST-CHORUS

G
14h15p14----14h15p14-----------------

D
---------15---------15p14-14h15p14\12

A
-------------------------------------

D
-------------------------------------

==============================================================
VERSE

G
-------------------------

D
-------------------------

A
---5----2h3 55-----------

D
00---2h3-------0--2h3-3h5

===============================================================
PRE-CHORUS

G
-----------------------------------------------

D
-----------------------------------------------

A
-6-6---6-6---5-5---5--5---6-6---6---6--6-9-5-5-

D
-----------------------------------------------


G
-------------------------------------------8--

D
----------------------------------------9-----

A
------6~--------------5---3h5---6-6--9--------

D
-0--0----0--3--5--0-0---------0---------------


G
-------------------------

D
-------------------------

A
-5-5-5-5-5-5-5-5-5-5-5-5-

D
-------------------------


================================================================
BRIDGE
G
--------------------------------------------

D
--------------------------------------------

A
--------------------------------------------

D
0-0-0-0-r-0-0-0~-XX-X-0-0-0-0-12/-0-0-0~-0h1


G
-------------------------------------------

D
-------------------------------------------

A
-------------------------------------------

D
0-0-0-0-12/-0-0-0~-0h1-0-0-0-0-r-0-0-0~-0h1


G
--------------------------------------------

D
--------------------------------------------

A
--------------------------------------------

D
0-0-0-0-12/-0-0-0~-0h1-0-0-0-0-r-0-0-0~-XX-X


G
------------------------------------------

D
------------------------------------------

A
------------------------------------------

D
0-0-0-0-12/-0-0-0~-0h1-0-0-0-0-12/-0-0-0-0

================================================================
INTERLUDE 1

G
------------12-----------------------12-----------

D
12~-12h14h15--15p14p12-rr-rr-12h14h15--15p14-14p12

A
--------------------------------------------------

D
--------------------------------------------------

====================================================
INTERLUDE 2

G
-----
-----
-------------------

D
-----
-----
--------13h15p13p12

A
-----
-----
12h13h14-----------

D
-----
-----
-------------------


================================================================
FINAL CHORUS

G
--------------------------------

D
--------------------------------

A
------------------5h6p5----5h6p5

D
3333-11-11-111-00------XXXX-----


G
--------------------------------

D
--------------------------------

A
------------------5h6p5----5h6p5

D
3333-11-11-111-00------XXXX-----


G-------------------------------------

D-------------------------------------

A---------3-------1-----1-------------

D-3-3-3-3---0-1-1---1-1----0--0--0--0-


G----------------------------------

D----------------------------------

A---------3-------1-----1----------

D-3-3-3-3---0-1-1---1-1----0-0-0-0-

==================================================================
SONG STRUCTURE

chorus
pre-verse
verse (x6)
pre-chorus
chorus
pre-verse
verse (x6)
pre-chorus
chorus
bridge
interlude 1
interlude 2
final chorus

5.WRONG WAY

Enter at 0:11
G
--------

D
--------

A
--------

D
-3-1-0--


Verse:
G
--------------------------------------------

D
-------0------------------------------------

A
---6-6-------3H5------3/8----3H5------------

D
-----------0------0--------0-----0--3-1-0---


Post verse:
G
------------------------------------------

D
---------0------0~------------------------

A
--6-6-------3-5-------/88888888--77777777-

D
------------------------------------------

Soft part:
G
-------------------------

D
-------------------------

A
-------------------------

D
----3~ ----2~ -----3-1-0-


Chorus:
G
------------------------------------
-------------------------------------

D
------------------------------------
-------------------------------------

A
----------/3-333H5-3----------5-----
------------3-----------------2-3-5--

D
--0-0-0-0-----------05-5-5-5----5-4-
-3-3-3-3---3-3--2-2-2-2----22--------


G
----------------------------------

D
----------------------------------

A
----------/3-333H5-3----------5---

D
--0-0-0-0-----------05-5-5-5----5-


Post chorus:
G
-----------------------------------------------

D
-----------------------------------------------

A
-----555------4445544--------------------------

D
-000-----000-----------000--888-000-777-88-7---


G
-----------------------------------------------

D
-----------------------------------------------

A
-----555------4445544--------------------------

D
-000-----000-----------000--888-000-777-8-7-5--


Bridge:3.01
G
--------------------------------------------------

D
--------------------------------------------------

A
--666---33-----------------666--33-----------1/17-

D
--------------1-1-0~ -----------------1-1-0-------


G
------------------------------------------

D
------------------------------------------

A
--666---33-----------------666--33--------

D
--------------1-1-0~ -----------------1-1-


G
-----------------7H8-7--------------7H8-7-------------7/8-------------------

D
----------------------------------------------------------------------------

A
-------3-5-------------------3-5----------------3-5---------------3---------

D
--0-1------------------0-1-----------------0-1--------------0-1------5-4-3--


E
---------------------------------

A
---------------------------------

D
------------3-------------2-3-5--

G
-3-3-3-3---3-3--2-2-2-2-2--------


Chorus:
G
---------------------------------

D
---------------------------------

A
---------/3-333H5-3---------5----

D
--0-0-0-0----------05-5-5-5---5--


E
---------------------------------

A
---------------------------------

D
------------3-------------2-3-5--

G
-3-3-3-3---3-3--2-2-2-2-2--------


G
---------------------------------

D
---------------------------------

A
---------/3-333H5-3---------5----

D
--0-0-0-0----------05-5-5-5---5--


G
-------------

D
-------------

A
-------------

D
----3~ -2~ --


6.FACELESS MAN

Don't Know

7.NEVER DIE

Drop D Tuning

Intro:

----------------

-6~-----5~------

----6~------5~--

----------------


Verse 1:

---------------
----------------
--------5h7--------
-----------3/5/7

---------------
----------------
-----------5h7-5---
----------------

---------5----5
----------------
------5---------5h7
----------------

-6\-1--5----0--
-6-1/-5-0--0-0--
6-1-5--------------
-6--1--5--0-----


---------------
----------------
-------------------
-----------5h7--

---------------
----------------
-------------------
--------------5-

---------5-----
-------5---/5---
----------5--------
----------------

-6--1/5---0-1-0
-6-1/5----0---5-
-6--1--5-----------
-6--1--5--0-----


----------------
--------5h7----
-------------------
----------------

----------------
-----------5---
-------------------
----------------

--------5-/---/5
------------5h7
----------5--------
----------------

-6--1/5-----0---
-6-1-5-0-------
-6-1/5-------------
-6--1-5-0--00-0-


Chorus:

---------------------------
---------------------------

---------------------------
---------------------------

---------------------------
---------------------------

-6h7p6-1h2p1-5h6p5-0-00-00-
-6h7p6-1h2p1-5h6p5-0-00-00-


---------------------------
---------------------------

----------------------0--0-
----------------------0----

---------------------------
-------6h7p6---------------

-6h7p6-1h2p1-5h6p5-0-0--0--
-6h7p6-------5h6p5-0-0--00-


Verse 2:

----------------
---------------
-------------------
--------------

----------------
---------------
-------------------
---------7----

-------5-----5--
---------------
-----------/5------
---6--------7-

-6-1-5---0------
-6-1-5-0----12\
-6-1-5-0--0---0----
-6---5-0------


-------------
----------------
------------------
--------5h7-------

-------------
----------------
------------------
-----------5h7----

-------------
---6----5-5h7---
---------/5-------
---6---5-------5h7

-6-1-5-0-----
-6----5------0-0
-6-1-5-0---0--7\--
-6---5------------


-------------
-----------------

-------------
-----------------

-------------
---6---5---------

-6-1-5-0-----
-6---5---0-00-00-


Chorus:

---------------------------
---------------------------

---------------------------
---------------------------

---------------------------
---------------------------

-6h7p6-1h2p1-5h6p5-0-00-00-
-6h7p6-1h2p1-5h6p5-0-00-00-


---------------------------
---------------------------

----------------------0--0-
----------------------0----

---------------------------
-------6h7p6---------------

-6h7p6-1h2p1-5h6p5-0-0--0--
-6h7p6-------5h6p5-0-0--00-


Bridge:

-------------
--------------
-------------
--------------

-------------
--------------
-------------
--------------

-5-5--5--55--
-5-5--5--55---
-5-5--5--55--
-5-5--5--55---

0------------
0-------------
0------------
0-------------


-------------
--------------
-------------
-----5h75h75p4-

-------------
--------------
-------------
--------------5

-5-5--5--55--
-5-5--5--55---
-5-5--5--55--
-5-5-----------

0------------
0-------------
0------------
0--------------


-------------
--------------
-------------
----5h7-7-5p4--

-------------
--------------
-------------
-------------5-

-------------
--------------
-------------
---------------

0------------
0-------------
0------------
0--------------


-------------
--------------
-------------
---------------

-------------
--------------
-------------
---------------

-------------
--------------
-------------
---------------

0---7-7h8p7--
0-5--7-7h8p7--
0-5--7-7h8p7-
0--5--7-8-7\---


-------------
--------------
-------------
-----------------

-------------
--------------
-------------
-----------------

-------------
--------------
-------------
-----3h555-3-3p2-

0-5-7-7h8p7--
0-5--8-888-88-
0-5--7-7h8p7-
0-5-0-----------5


-------------
--------------
-------------
---------------

-------------
--------------
-------------
---------------

-------------
--------------
-------------
---------------

0-5-7-7h8p7--
0-5--7-7h8p7--
0-5--7-7h8p7-
0--5--7-00-00--


Final Chorus:

---------------------------
---------------------------

---------------------------
--------------------0------

---------------------------
---------------------------

-6h7p6-1h2p1-5h6p5-0-00-00-
-6h7p6-1h2p1-5h6p5-0-00-00-


---------------------------
---------------------------

----------------------0--0-
----------------------0----

---------------------------
-------6h7p6---------------

-6h7p6-1h2p1-5h6p5-0-0--0--
-6h7p6-------5h6p5-0-0--00-


---------------------------
----------------------------

---------------------------
----------------------0--0-0

---------------------------
----------------------------

-6h7p6-1h2p1-5h6p5-0-00-00-
-6h7p6-1h2p1-5h6p5-0-0--0-0-


---------------------------
---------------------------

----------------------0--0-
----------------------0~---

---------------------------
-------6h7p6---------------

-6h7p6-1h2p1-5h6p5-0-0--0--
-6h7p6-------5h6p5-0-0--00-


Outro

----------------
-------------

-6~-----5~------
6~-----5~----

----6~------5~--
---6~-----5~-

----------------
-------------


8.WITH ARMS WIDE OPEN

Intro/1st Verse
G
------------------------0-0-0-0-2-

D
----------------------------------

A
3-3-3-3-2-2-2-2-0-0-0-0-----------

E
----------------------------------


1st Chorus
G
------------------------------------

D
------------------------------------

A
-------------3--3--3h5p0---------5~-

E
-1--1--1h3h4-------------0--0--0----


2nd Verse
G
-------------------------0------------------9-7---------

D
-------------------------------5h7-7-14-12------7-5-2-0-

A
-3--3--5-3-2--2--2h3h5-0---5h7--------------------------

E
--------------------------------------------------------


G
-------------------------0----------------------------

D
-------------------------------5h7-7--12h14--5h7--0h2-

A
-3--3--5-3-2--2--2h3h5-0---5h7------------------------

E
------------------------------------------------------


G
-------------------------0----------------------

D
-------------------------------5h7-7-5h7--5-----

A
-3--3--5-3-2--2--2h3h5-0---5h7----------------5-

E
------------------------------------------------


2nd Chorus
G
-----------------------------------------------------------------

D
*-----------------------------------------------------5h7-7-5---*

A
*-------------------3-xx3-x3-x3-3h5p0---------5-5-5h7---------7-*

E
--1-xx1-x1-x1-1h3h4-------------------0--0-0---------------------


Little riff before solo
G
----------5h7-7-7-7p5---

D
---------------------5--

A
-0--0--0--------------5-

E
------------------------



Solo
G
---------------------------------------------

D
---------------------------------------------

A
-3-3-3-3-3h5-2-2-2-2-2h3h5-1-1-1-1-1-0-0-0-0-

E
---------------------------------------------


3rd Chorus, same as 2nd chorus

9.HIGHER

Drop-D tuning...Lo to Hi(DADG)
==============================
Intro
MM = 78

    w   +w   +w   +H+e s s   E s e s s s s e s s s s
+-----+----+----+----------+---------------------------

4:-R-
----
----
----------
---------------------------

4:---
----
----
----------
-----5-5-5-5-5-----5-7-5---

+-----+----+----+------7-7-+-0-0-----------0-0---------



  E s s s s s e s s s s s s   E s s s s e s s s s s s s
+---------------------------+-----------------------------

-------------------R-------
-----------------------------

-0-0-0-4-5-4-4-4-5---7P5-5-
-----------------------------

+---------------------------+-5-5-5P0-3-5-5-5P0-3H5-5P0---


                         1st Verse

  s e e s s e e s s s e    q q+s s e e s s   q E s e s s s s e
+-----------------------+------------------+---------------------

-----------------------
*-----------------
---5-5-------R-------

-----------------7-5-7-
*---5-----5-------
---------------------

+-5-0-0-0-5-0-0-0-------+--0-----0/--0-4/5-+-5-----5-5/7---5-5---


                                       Pre-chorus

  q q+s s e e s s   q E s e s s e e 3  s s s s s s s s s s s s s s s s
+-----------------+------------------+-----------------------------------

-----------------
---5-5-5---------*
-----------------------------------

---5-----5-------
-----------------*
-----------------------------------

+-0-----0/--0-4/5-+-5-------5H7-7-5--+-4-4-4-4-4-4-4-4-4-4-4-4-4-4-4-4---



  s s s s s s s s s s s s s s s s   s s s s s s s s s s s s s s s s
+---------------------------------+-----------------------------------

---------------------------------
-----------------------------------

---------------------------------
-----------------------------------

+-5-5-5-5-5-5-5-5-5-5/7-7-7-5-5-5-+-4-4-4-4-4-4-4-4-4-4-4-4-4-4-4-4---


                                      Chorus

  s s s s e  e  s  e  s  s  s  s  s   E s s s E s s s e s
+-----------------------------------+-----------------------

-----------------------------------
---------------R-------

-----------------------------------
---5H7-5-4-4H5---7-7---

+-5-5-5-5-5/16-17-17-17-17-17-17-17-+-0---------------------



  E E s e s s s s s e   E s s s     q s s s s e   E E s e s s s e      s s
+---------------------+-------------------------+----------------------------

---------4-----4-5-7-
-------------------------
---------4------------------

-----------5-5-------
-5-5-----(5)\4-4H5-5-7-7-
-----------5-5-4>-(5)-5-7---

+-5-4-0-0-------------+-----5/7-----------------+-5-4-0-0--------------------



  E s s s E s s s e s   E E s e s s s s s e   E s s s     q s s s s e
+---------------------+---------------------+---------------------------

---------------R-----
---------4-----4-5-7-
---------------------------

---5H7-5-4-4H5---7-7-
-----------5-5-------
-5-5-----(5)\4-4H5-5-7-7---

+-0-------------------+-5-4-0-0-------------+-----5/7-------------------


            2nd Verse

  E E e+h    q q+s s e e s s   q E s e s s s s e   q q+s s e e s s
+---------+------------------+-------------------+-------------------

---------
*-----------------
---5-5-------R-----
-------------------

---------
*---5-----5-------
-------------------
---5-----5---------

+-5-4-0---+--0-----0/--0-4/5-+-5-----5-5/7---5-5-+-0-----0/--0-4/5---


                     Pre-chorus

  q E s e s s e e 3  s s s s s s s s s s s s s s s s
+------------------+-----------------------------------

---5-5-5---------*
-----------------------------------

-----------------*
-----------------------------------

+-5-------5H7-7-5--+-4-4-4-4-4-4-4-4-4-4-4-4-4-4-4-4---



  s s s s s s s s s s s s s s s s   s s s s s s s s s s s s s s s s
+---------------------------------+-----------------------------------

---------------------------------
-----------------------------------

---------------------------------
-----------------------------------

+-5-5-5-5-5-5-5-5-5-5/7-7-7-5-5-5-+-4-4-4-4-4-4-4-4-4-4-4-4-4-4-4-4---


                                      Chorus

  s s s s e  e  s  e  s  s  s  s  s   E s s s E s s s e s
+-----------------------------------+-----------------------

-----------------------------------
---------------R-------

-----------------------------------
---5H7-5-4-4H5---7-7---

+-5-5-5-5-5/16-17-17-17-17-17-17-17-+-0---------------------



  E E s e s s s s s e   E s s s     q s s s s e   E E s e s s s e      s s
+---------------------+-------------------------+----------------------------

---------4-----4-5-7-
-------------------------
---------4------------------


-----------5-5-------
-5-5-----(5)\4-4H5-5-7-7-
-----------5-5-4>-(5)-5-7---

+-5-4-0-4-------------+-----5/7-----------------+-5-4-0-0--------------------



  E s s s E s s s e s   E E s e s s s s s e   E s s s     q s s s s e
+---------------------+---------------------+---------------------------

---------------R-----
---------4-----4-5-7-
---------------------------

---5H7-5-4-4H5---7-7-
-----------5-5-------
-5-5-----(5)\4-4H5-5-7-7---

+-0-------------------+-5-4-0-4-------------+-----5/7-------------------


                          1st Bridge

  E E s e s s s s s s s    s s s s s s s s s s s s s s s s
+-----------------------+------------------------------------

---------4-------------
*-----------------------------------

-----------5-5-4H5-5-7-
*-----------------------------------

+-5-4-0-0---------------+--4-4-4-4-4-4-4-4-4-4-4-4-4-4-4-4---



  s s s s s s s s s s s s s s s s   s s s s s s s s s s s s s s s s
+---------------------------------+-----------------------------------

---------------------------------
-----------------------------------

---------------------------------
-----------------------------------

+-5-5-5-5-5-5-5-5-5-5-5-5-5-5-5-5-+-4-4-4-4-4-4-4-4-4-4-4-4-4-4-4-4---


                                             Guitar Solo

  s s s s s s s  s  s  s  s  s  s  s  s  s   E s e s s s s e s s s s
+------------------------------------------+---------------------------

------------------------------------------
---------------------------

------------------------------------------
-----5-5-5-5-5---5-5-7-5---

+-4/5-5-5-5-5-5/16-17-17-17-17-17-17-17-17-+-0-0-----------0-----------



  e s s s s s E s s s e s   e s s s s s e s s s s s s s
+-------------------------+-------------------------------

-------------------R-----
-------------------------------

-----------5-4-4-5---7\5-
-------------------------------

+-7-7-7-7-7---------------+-5-5-5-5-0-3-5-5-5-0-3-5-5-7---


                            2nd Bridge

  s e e s s e e s s s s s   E s e s E e s s s s   E s s s s e s s s s s s
s
+-------------------------+---------------------+-----------------------------

-------------------------
---------------------
-----------------------------

-------------------------
---------------5-7-5-
---------5-4-4-4H5-5H7-7-5---

+-5-0-0-0-5-0-0-0-5-0-0-0-+-0-0-0-0-0-0-0-------+-7-7-7-7---------------------



  E s s s s s s s s s s s s s   s e e s s e e s s s s s   E s e s E e s s
s s
+-----------------------------+-------------------------+-----------------------

---5-------------------------
-----------------5-4---4-
-----------------------

-----------------------------
---------------------7---
---------------5-7-5---

+-5---5-0-5-5-5-5-0H3/5-5-0-5-+-5-0-0-0-5-0-0-0---------+-0-0-0-0-0-0-0---------



  E s s s s e s s s s s s s   E s s s s s s s s s s s s s
+---------------------------+-------------------------------

---------------------------
---5---------------------------

---------5-4-4-4H5-5H7-7-5-
-------------------------------

+-7-7-7-7-------------------+-5---5-0-5-5-5-5-0H3/5-5-0-5---


                         Interlude              3rd Bridge

  s s s e s s s s e s q   w   w   +w   +H+E s   e q e e e E s   e e e e e
e q
+---------------------7-+---+---+----+--------+---------------+-----------------

-----5-4-4-----5-4-4---
---
-R-
----
--------
---------------
-----------------

-----------------------
---
---
----
------4-
-5-5-5-5-5-5---
-----------------

+-5-0-------0-0---------+-0-+---+----+--------+-------------5/+-7-7-7-7-7-7-7---


                                        Chorus

  e e e e h   s e e s s e e s s s s s   E s s s E s s s e s
+-----------+-------------------------+-----------------------

-----------
-------------------------
---------------R-------

-----------
-------------------------
---5H7-5-4-4H5---7-7---

+-5-5-5-5-5-+-5-0-0-0-5-0-0-0-5P0-0-0-+-0---------------------



  E E s e s s s s s e   E s s s     q s s s s e   E E s e s s s e      s s
+---------------------+-------------------------+----------------------------

---------4-----4-5-7-
-------------------------
---------4------------------

-----------5-5-------
-5-5-----(5)\4-4H5-5-7-7-
-----------5-5-4>-(5)-5-7---

+-5-4-0-0-------------+-----5/7-----------------+-5-4-0-0--------------------



  E s s s E s s s e s   E E s e s s s s s e   E s s s     q s s s s e
+---------------------+---------------------+---------------------------

---------------R-----
---------4-----4-5-7-
---------------------------

---5H7-5-4-4H5---7-7-
-----------5-5-------
-5-5-----(5)\4-4H5-5-7-7---

+-0-------------------+-5-4-0-0-------------+-----5/7-------------------


                             Outro Chorus

  E E s e s s s e      s s   E s s s q s s s e s   E E s e s s s s s e
+--------------------------+---------------------+-----------------------

---------4----------------
---------------R-----
---------4-----4-5-7---

-----------5-5------------
---5H7-5-4-4H5---7-7-
-----------5-5---------

+-5-4-0-0-------4>-(5)-4P0-+-0-------------------+-5-4-0-0---------------



  E s s s     q s s s s e   E E s e s s s e      s s
+-------------------------+----------------------------

-------------------------
---------4------------------

-5-5-----(5)\4-4H5-5-7-7-
-----------5-5-4>-(5)-5-7---

+-----5/7-----------------+-5-4-0-0--------------------



  E s s s s e s s s s s s s   E E s e s s s s s e   E s s s     q s s s s
e
+---------------------------+---------------------+---------------------------

---7-7-------7-------------
---------4-----4-5-7-
---------------------------

-5-----5-4-4---4-4-4H5-5-7-
-----------5-5-------
-5-5-----(5)\4-4H5-5-7-7---

+---------------------------+-5-4-0-0-------------+-----5/7-------------------



  E E e+h   +w
+---------+------

---------
------

---------
------

+-5-4-0---+------


10.WASH AWAY THOSE YEARS

Don't Know

11.INSIDE US ALL

INTRO(NO BASS)
G
---------------

D
---------------

A
---------------

D
---------------


00:14

G
------------------------------------------------

D
------------------------------------------------

A
------------------------------------------------

D
2--2-2-2--2-5--5-5-5--5-0--0-0-0--0-0--0-0-0--0-


"WHEN YOU'RE ALL ALONE":

G
------------------------------------------------

D
------2------------5-5--------------------------

A
----2----2-------5------------------------------

D
2---------4-5-----------0--0-0-0--0-0--0-0-0--0-


G
-------------------------------------------------

D
---2---2-2---------5-5---------------------------

A
-----2----2------5-----------------------/7-5--\-

D
2-2--------4-5----------0--0-0-0--0-0--0---------


CHORUS

G
------------------------------------------------------------------------

D
------------------------------------------------------------------------

A
3-3-3--3-3-3----------------------------------------------3H5-5-5-5-5-2-

D
--------------3-3-5-5-5\/5--3H5-3-0-0--0-0-0-3H5-3-0-0--0---------------


G
-----------------------------------------------------------------------

D
-----------------------------------------------------------------------

A
3-3-3--3-3-3-------------------------------------------3H5-5--3-3---2--

D
--------------3-3-5-5-5\/5--3H5-3-0-0--0-0-0-555-333-0------------3----


G
------------------------------------------------------------------------

D
--------------------------------------------------------------4-5-7--7\-

A
3-3-3--3-3-3---------------------------5-5-5----------------------------

D
--------------3-3-5-5-5\/5--3H5-3-0-0--------555-333-0--0-0-0-----------


01:36

G
-------------------------------------------------

D
-----------------5H7-5---------------/14-12--12\-

A
-------------------------------------------------

D
2--2-2-2--2-5--5--------0--0-0-0--0--------------


G
------------------------------------------------

D
--22---2-2----55---5-5---------------4-5-7--5-4-

A
-----2----2------5------------------------------

D
2----------4-5----------0--0-0-0--0-------------


G
-------------------------------------------------

D
------2-------5----5-5---------------4-5-7--5-4\-

A
----2----2-------5-------------------------------

D
2---------4-5-----------0--0-0-0--0--------------


CHORUS

G
------------------------------------------------------------------------

D
------------------------------------------------------------------------

A
3-3-3--3-3-3---------------------------5-5-5-------------3H5-5--------2-

D
--------------3-3-5-5-3H5-5-3H5-3-0-0--------555-333-0-0-------0-0-0----


G
------------------------------------------------------------------------

D
------------------------------------------------------------------------

A
3-3-3--3-3-3---------------------------3H5-5---3H5-------55-3H5-5-5-5-2-

D
--------------3-3-5-5-5\/5--3H5-3-0-0--------0-----3-0-0----------------


G
------------------------------------------------------------7----X7-----

D
-------------------------------------------------------45-7---45-7--7-5-

A
3-3-3--3-3-3---------------------------5-5-5----------------------------

D
--------------3-3-5-5-5\/5-5-3H5-3-0-0-------555-3-3-0------------------


02:59

G
------------------------------------------------------------------------

D
----------------------------------------------5-5-5-4-------------------

A
3-3-3--3-3-3--5-3----------------------3H5-5--------------3H5-5-5-----2-

D
------------------5-5-3H5-5--3H5-3-0-0----------------0-0---------0-0---


G
------------------------------------------------------------------------

D
------------------------------------------------------------------------

A
3-3-3--3-3H5P3-5-7---------------------3H5-5------------3H5-5-5/7-7/9-9-

D
------------------5-5-/5-5-7-7-5-5-0-0-------555-333-0------------------


G
------------------------------------------------------------------------

D
-------------------------------------------------5-3--------------------

A
3-3-3--3-3-3--5-3----------------------3H5-5-3-5----5-5-0-3-5-5/7-7/9-9-

D
------------------5-5\-5-0-5-3-3-0-0-0----------------------------------


G
-----------------------------------------------------------------------

D
-----------------------------------------------------------------------

A
3-3-3-3-3-5-3-------------------------------------------------10-10-10-

D
--------------3-3-5-5-/5-5/7-7-7/9-9-9/11-11-11/-0-0-11P12-12----------


G
----------------------------------------

D
----------------------------------------

A
9-9-9---------------------12-10-9-9-----

D
------0-0-11P12-12-12--12-----------9-9-


G
-----------------------------------------------------------------------------

D
-------------------------------------------------3------------------4--------

A
3-3-3--3-3-5---------------------------3H5-5-3H5---5-----3H5-5-5-3H5--5--2-2-

D
--------------3-3-5-5-5\/5--3H5-3-0-0----------------0-0---------------------



G
-------------------------------------------------------------7---7---7---7-\-

D
-----------------------------------------------5-5-5-5-4-4----7-5-7-5-7-5----

A
3-3-3--3-3-3-------------------------3H5-5-5-5-------------5-----------------

D
--------------3-3-5-5-5\/5-3H5-3-0-0-----------------------------------------


G
-----------------------------------------------------------------------------

D
-----------------------------------------------7-5-4-----------------7-5-4-7-

A
3-3-3--3-3-3-------------------------3H5-5-5-5-------------3H5-5-5-5---------

D
--------------3-3-5-5-5\/5-3H5-3-0-0-----------------0-0-0-------------------


G
-------------------------------------------------------------------------------

D
-------------------------------------------------------------------------------

A
3-3-3-3-3-3-5-5-3---------------------3H5-5-5\10-10-10-9-9-9-----3H5-5-5-3H5-5-

D
------------------5-5-5\/5-3H5-3-0-0-------------------------0-0---------------


G
--------------------------------------------------------------------------------------------

D
--------------------------------------------------------------------------------------------

A
3-3-3-3-3-3-3\5-5-5\7-7-7--------------------------------3H5-5-5-3H5-5-5---3H5-5-3H5-5-2-2--

D
--------------------------5-5-5-5\-5-5-5-3H5-3-3-3-0-0-0-----------------0------------------


G
-------------------------------------------------------------7---7---7---7-\-

D
-------------------------------------------5-5-5-5-4-4-4------7-5-7-5-7-5----

A
3-3-3--3-3-3-------------------------3H5-5-----------------------------------

D
--------------3-3-5-5-5\/5-3H5-3-0-0---------------------0-0-----------------


G
-----------------------------------------------------------------------------

D
-----------------------------------------------------------5-5-5-5-4-4-4-----

A
3-3-3--3-3-3-------------------------3H5-5-3H5-5-----3H5-5---------------2-2-

D
--------------3-3-5-5-5\/5-3H5-3-0-0-------------0-0-------------------------


Fade out
 


/
How To Set Up Higher Praise As Your Home Page
Copyright 1999, Higher Praise HigherPraise,Inc. All rights reserved. Terms of Use

Enjoy A Life Changing Experience

 
 
 
HigherPraise, Higher Praise, HigherPraise, Higher Praise, HigherPraise

Members..Sign Up. LogIn

 
 

Higher Praise Other Sites
 
 

HigherPraise.org/
Praise And Worship
www.higherpraise.org

HigherPraise.net
Christian Resources
www.higherpraise.net

HigherPraiseTube.com
Videos And Audios
www.higherpraisetube.com.


ChristianLyrics.org

Lyrics And Chrords
www.christianlyrics.org

ChristianChordsLyrics

Lyrics And Chrords
www.christianchordslyrics.com

ChristianChordLyrics

Lyrics And Chrords
www.christianchordlyrics.com

WorshipLyrics.org
10.000 Illustrations
www.worshiplyrics.org

WorshipLyrics.net
10.000 Illustrations
www.worshiplyrics.net

PraiseLyrics.com
PowerPoint Lyrics

www.praiselyrics.com

PraiseLyrics.org
PowerPoint Lyrics

www.praiselyrics.org

1GodTube.com
Chistian Videos

www1godtube..com

OneGodTube.com
Chistian Videos

www.onegodtube..com

 

/
Copyright 1999 - 2019, Higher Praise™ HigherPraise™,Inc. All rights reserved. Terms of Use