Higher Bass Tab Tabs by Creed

Higher Praise - Guitar Chords, Lyrics  GuitarTabs -  Praise nad Worship Music And Christian Songs

Higher Praise - Guitar Tabs, Guitar Chords, Lyrics
   Lyrics, Chords And Tabs
   Popular Lyrics Chords Tab
   Power Point Lyrics
   Praise & Worship Music
   Christian Music Videos
   15900 Videos & Audios
   Midi Files
   Worship Questions
   Christmas Chords, Lyrics
   Lyrics, Chords Tabs Rated

Sermon Outlines And Audio Sermons
   9344 Sermon Outlines
   N.T. Sermon Outlines
   O.T. Sermon Outlines
   Special Guest Outlines
   10.000 Illustrations
   Sunday School Studies
   Bible College Studies
   Greatest Preachers
   Bible Research Tools
Audio Sermons
   2895 Audio Sermons
   85 Sermon Videos
   291 Special Guests Serm

   Complete Audio Bible
Higher Praise Sunday School Teaching
   Children's NT Studies
   Children's OT Studies

   98 Children's Midis
   Gospel For Kids Movie
   Children's JESUS Film
Higher Praise Christian Video Library ,Videos
   Christian Television
   TBN TV Live
   15,000 Videos - HP Tube
   712 Youth Music Vids
  Christian Video Library
   Praise Videos #1 & #2
   85 Sermon Videos
   Prophecy Film -Videos
   JESUS Film -Video
   Childrens JESUS Film
   Gospel For Kids Movie
   Passion Of The Christ
   Noah, Sodom, Sinai, Ark
   Tsunami Videos Photos
News And Information
   Testimonies
   Submit Lyrics, Tabs, Serm
   10.000 Illustrations
   Bible College Course
   Clipart & Web Graphics
   Greatest Preachers
   Complete Talking Bible
   Christian Chat Rooms
   Links Church Resource
   HP Statement Of Faith
Download Clipart
   Audio Sermons
   Clipart & Web Graphics
   Church Administration
   Bible Study Software
   Screen Savers Software
   Verse A Day Software
   Educational Games
   Trade Center Photos

   Soft. Search Engine
Higher Praise News
   Current News
    Archived News
   Submit News
   Newsletter   Higher Praise Interact Prayer
   Prayer For All Needs
   
Submit Lyrics, Sermons
   
Contact Higher Praise
   
Advertising 
   Privacy Policy
//
He Died For You,  Click For Answer! This Is Who Jesus Is Video

'
 
0-9 A B C D E F G H I J K L M N O P Q R S T U V W X Y Z
.

//
Click For Printable...Version Of This File
 

Higher Bass Tab


by Creed

Share |



Creed:Higher
From the album Human Clay
Words and Music by Tremonti and Stapp 
Transcribe: Fernando Delgado

Drop-D tuning...Lo to Hi(DADG)
==============================
Intro
MM = 78

    w   +w   +w   +H+e s s   E s e s s s s e s s s s  
+-----+----+----+----------+-------------------------+

4:-R-
----
----
----------
-------------------------

4:---
----
----
----------
-----5-5-5-5-5-----5-7-5-

+-----+----+----+------7-7-+-0-0-----------0-0-------+

  
  E s s s s s e s s s s s s   E s s s s e s s s s s s s  
+---------------------------+---------------------------+

-------------------R-------
---------------------------

-0-0-0-4-5-4-4-4-5---7P5-5-
---------------------------

+---------------------------+-5-5-5P0-3-5-5-5P0-3H5-5P0-+
                          
                         1st Verse

  s e e s s e e s s s e    q q+s s e e s s   q E s e s s s s e  
+-----------------------+------------------+-------------------+

-----------------------
*-----------------
---5-5-------R-----

-----------------7-5-7-
*---5-----5-------
-------------------

+-5-0-0-0-5-0-0-0-------+--0-----0/--0-4/5-+-5-----5-5/7---5-5-+

                                       Pre-chorus

  q q+s s e e s s   q E s e s s e e 3  s s s s s s s s s s s s s s s s  
+-----------------+------------------+---------------------------------+

-----------------
---5-5-5---------*
---------------------------------

---5-----5-------
-----------------*
---------------------------------

+-0-----0/--0-4/5-+-5-------5H7-7-5--+-4-4-4-4-4-4-4-4-4-4-4-4-4-4-4-4-+

  
  s s s s s s s s s s s s s s s s   s s s s s s s s s s s s s s s s  
+---------------------------------+---------------------------------+

---------------------------------
---------------------------------

---------------------------------
---------------------------------

+-5-5-5-5-5-5-5-5-5-5/7-7-7-5-5-5-+-4-4-4-4-4-4-4-4-4-4-4-4-4-4-4-4-+

                                      Chorus
                                      
  s s s s e  e  s  e  s  s  s  s  s   E s s s E s s s e s  
+-----------------------------------+---------------------+

-----------------------------------
---------------R-----

-----------------------------------
---5H7-5-4-4H5---7-7-

+-5-5-5-5-5/16-17-17-17-17-17-17-17-+-0-------------------+


  E E s e s s s s s e   E s s s     q s s s s e   E E s e s s s e      s s
+---------------------+-------------------------+--------------------------+

---------4-----4-5-7-
-------------------------
---------4----------------

-----------5-5-------
-5-5-----(5)\4-4H5-5-7-7-
-----------5-5-4>-(5)-5-7-

+-5-4-0-0-------------+-----5/7-----------------+-5-4-0-0------------------+


  E s s s E s s s e s   E E s e s s s s s e   E s s s     q s s s s e  
+---------------------+---------------------+-------------------------+

---------------R-----
---------4-----4-5-7-
-------------------------

---5H7-5-4-4H5---7-7-
-----------5-5-------
-5-5-----(5)\4-4H5-5-7-7-

+-0-------------------+-5-4-0-0-------------+-----5/7-----------------+

            2nd Verse

  E E e+h    q q+s s e e s s   q E s e s s s s e   q q+s s e e s s  
+---------+------------------+-------------------+-----------------+

---------
*-----------------
---5-5-------R-----
-----------------

---------
*---5-----5-------
-------------------
---5-----5-------

+-5-4-0---+--0-----0/--0-4/5-+-5-----5-5/7---5-5-+-0-----0/--0-4/5-+

                     Pre-chorus

  q E s e s s e e 3  s s s s s s s s s s s s s s s s  
+------------------+---------------------------------+

---5-5-5---------*
---------------------------------

-----------------*
---------------------------------

+-5-------5H7-7-5--+-4-4-4-4-4-4-4-4-4-4-4-4-4-4-4-4-+


  s s s s s s s s s s s s s s s s   s s s s s s s s s s s s s s s s  
+---------------------------------+---------------------------------+

---------------------------------
---------------------------------

---------------------------------
---------------------------------

+-5-5-5-5-5-5-5-5-5-5/7-7-7-5-5-5-+-4-4-4-4-4-4-4-4-4-4-4-4-4-4-4-4-+

                                      Chorus

  s s s s e  e  s  e  s  s  s  s  s   E s s s E s s s e s  
+-----------------------------------+---------------------+

-----------------------------------
---------------R-----

-----------------------------------
---5H7-5-4-4H5---7-7-

+-5-5-5-5-5/16-17-17-17-17-17-17-17-+-0-------------------+


  E E s e s s s s s e   E s s s     q s s s s e   E E s e s s s e      s s
+---------------------+-------------------------+--------------------------+

---------4-----4-5-7-
-------------------------
---------4----------------


-----------5-5-------
-5-5-----(5)\4-4H5-5-7-7-
-----------5-5-4>-(5)-5-7-

+-5-4-0-4-------------+-----5/7-----------------+-5-4-0-0------------------+


  E s s s E s s s e s   E E s e s s s s s e   E s s s     q s s s s e  
+---------------------+---------------------+-------------------------+

---------------R-----
---------4-----4-5-7-
-------------------------

---5H7-5-4-4H5---7-7-
-----------5-5-------
-5-5-----(5)\4-4H5-5-7-7-

+-0-------------------+-5-4-0-4-------------+-----5/7-----------------+

                          1st Bridge

  E E s e s s s s s s s    s s s s s s s s s s s s s s s s  
+-----------------------+----------------------------------+

---------4-------------
*---------------------------------

-----------5-5-4H5-5-7-
*---------------------------------

+-5-4-0-0---------------+--4-4-4-4-4-4-4-4-4-4-4-4-4-4-4-4-+


  s s s s s s s s s s s s s s s s   s s s s s s s s s s s s s s s s  
+---------------------------------+---------------------------------+

---------------------------------
---------------------------------

---------------------------------
---------------------------------

+-5-5-5-5-5-5-5-5-5-5-5-5-5-5-5-5-+-4-4-4-4-4-4-4-4-4-4-4-4-4-4-4-4-+

                                             Guitar Solo

  s s s s s s s  s  s  s  s  s  s  s  s  s   E s e s s s s e s s s s  
+------------------------------------------+-------------------------+

------------------------------------------
-------------------------

------------------------------------------
-----5-5-5-5-5---5-5-7-5-

+-4/5-5-5-5-5-5/16-17-17-17-17-17-17-17-17-+-0-0-----------0---------+


  e s s s s s E s s s e s   e s s s s s e s s s s s s s  
+-------------------------+-----------------------------+

-------------------R-----
-----------------------------

-----------5-4-4-5---7\5-
-----------------------------

+-7-7-7-7-7---------------+-5-5-5-5-0-3-5-5-5-0-3-5-5-7-+

                            2nd Bridge

  s e e s s e e s s s s s   E s e s E e s s s s   E s s s s e s s s s s s
s  
+-------------------------+---------------------+---------------------------+

-------------------------
---------------------
---------------------------

-------------------------
---------------5-7-5-
---------5-4-4-4H5-5H7-7-5-

+-5-0-0-0-5-0-0-0-5-0-0-0-+-0-0-0-0-0-0-0-------+-7-7-7-7-------------------+


  E s s s s s s s s s s s s s   s e e s s e e s s s s s   E s e s E e s s
s s  
+-----------------------------+-------------------------+---------------------+

---5-------------------------
-----------------5-4---4-
---------------------

-----------------------------
---------------------7---
---------------5-7-5-

+-5---5-0-5-5-5-5-0H3/5-5-0-5-+-5-0-0-0-5-0-0-0---------+-0-0-0-0-0-0-0-------+


  E s s s s e s s s s s s s   E s s s s s s s s s s s s s  
+---------------------------+-----------------------------+

---------------------------
---5-------------------------

---------5-4-4-4H5-5H7-7-5-
-----------------------------

+-7-7-7-7-------------------+-5---5-0-5-5-5-5-0H3/5-5-0-5-+

                         Interlude              3rd Bridge

  s s s e s s s s e s q   w   w   +w   +H+E s   e q e e e E s   e e e e e
e q  
+---------------------7-+---+---+----+--------+---------------+---------------+

-----5-4-4-----5-4-4---
---
-R-
----
--------
---------------
---------------

-----------------------
---
---
----
------4-
-5-5-5-5-5-5---
---------------

+-5-0-------0-0---------+-0-+---+----+--------+-------------5/+-7-7-7-7-7-7-7-+

                                        Chorus

  e e e e h   s e e s s e e s s s s s   E s s s E s s s e s  
+-----------+-------------------------+---------------------+

-----------
-------------------------
---------------R-----

-----------
-------------------------
---5H7-5-4-4H5---7-7-

+-5-5-5-5-5-+-5-0-0-0-5-0-0-0-5P0-0-0-+-0-------------------+


  E E s e s s s s s e   E s s s     q s s s s e   E E s e s s s e      s s
+---------------------+-------------------------+--------------------------+

---------4-----4-5-7-
-------------------------
---------4----------------

-----------5-5-------
-5-5-----(5)\4-4H5-5-7-7-
-----------5-5-4>-(5)-5-7-

+-5-4-0-0-------------+-----5/7-----------------+-5-4-0-0------------------+


  E s s s E s s s e s   E E s e s s s s s e   E s s s     q s s s s e  
+---------------------+---------------------+-------------------------+

---------------R-----
---------4-----4-5-7-
-------------------------

---5H7-5-4-4H5---7-7-
-----------5-5-------
-5-5-----(5)\4-4H5-5-7-7-

+-0-------------------+-5-4-0-0-------------+-----5/7-----------------+

                             Outro Chorus

  E E s e s s s e      s s   E s s s q s s s e s   E E s e s s s s s e  
+--------------------------+---------------------+---------------------+

---------4----------------
---------------R-----
---------4-----4-5-7-

-----------5-5------------
---5H7-5-4-4H5---7-7-
-----------5-5-------

+-5-4-0-0-------4>-(5)-4P0-+-0-------------------+-5-4-0-0-------------+


  E s s s     q s s s s e   E E s e s s s e      s s  
+-------------------------+--------------------------+

-------------------------
---------4----------------

-5-5-----(5)\4-4H5-5-7-7-
-----------5-5-4>-(5)-5-7-

+-----5/7-----------------+-5-4-0-0------------------+


  E s s s s e s s s s s s s   E E s e s s s s s e   E s s s     q s s s s
e  
+---------------------------+---------------------+-------------------------+

---7-7-------7-------------
---------4-----4-5-7-
-------------------------

-5-----5-4-4---4-4-4H5-5-7-
-----------5-5-------
-5-5-----(5)\4-4H5-5-7-7-

+---------------------------+-5-4-0-0-------------+-----5/7-----------------+


  E E e+h   +w  
+---------+----+

---------
----

---------
----

+-5-4-0---+----+

Lyrics:
When dreaming I'm guided through another world
Time and time again
At sunrise I fight to stay asleep
'Cause I don't want to leave the comfort of this place
'Cause there's a hunger, a longing to escape
>From the life I live when I'm awake
So let's go there
Let's make our escape
Come on, let's go there
Let's ask can we stay
Can you take me higher?
To the place where blind men see
Can you take me higher?
To the place with golden streets
Although I would like our world to change
It helps me to appreciate
Those nights and those dreams
But, my friend, I'd sacrifice all those nights
If I could make the earth and my dreams the same
The only difference is
To let love replace all our hate
So let's go there
Let's make our escape
Come on, let's go there
Let's ask can we stay
Up high I feel like I'm alive for the very first time
Up high I'm strong enough to take these dreams
And make them mine
==========================================================================
                             NOTES
   +
oo
+            -----------------------
   +
oo
+       w = Whole  h = Half  q = Quarter
     
          e = 8th    s = 16th  t = 32nd  x = 64th
     

     
           Capital durations are dotted notes
     
           (equal to 1.5 times the durationvalue)
     

     
             #
     
         +----+                   +----+
  _  
  _      
*--*+  = MEASURE        
4:--
  = TIME
  \\_
_//      
*--*+    REPEATS        
4:--
    SIGNATURES
   
 [] 
       +----+   (#=Num Repeats) +----+
   
 
 

  /  []  \      + = TIE         ^  = TRIPLET           > = BEND
  \______/      H = HAMMER ON   \  = SLIDE TO FRET     R = Rest
                P = PULL OFF    \X = SLIDE TO NOWHERE  ~ = Trill----------------------
---------------R-----

-----------
-------------------------
---5H7-5-4-4H5---7-7-

+-5-5-5-5-5-+-5-0-0-0-5-0-0-0-5P0-0-0-+-0-------------------+


  E E s e s s s s s e   E s s s     q s s s s e   E E s e s s s e      s s
+---------------------+-------------------------+--------------------------+

---------4-----4-5-7-
-------------------------
---------4----------------

-----------5-5-------
-5-5-----(5)\4-4H5-5-7-7-
-----------5-5-4>-(5)-5-7-

+-5-4-0-0-------------+-----5/7-----------------+-5-4-0-0------------------+


  E s s s E s s s e s   E E s e s s s s s e   E s s s     q s s s s e  
+---------------------+---------------------+-------------------------+

---------------R-----
---------4-----4-5-7-
-------------------------

---5H7-5-4-4H5---7-7-
-----------5-5-------
-5-5-----(5)\4-4H5-5-7-7-

+-0-------------------+-5-4-0-0-------------+-----5/7-----------------+

                             Outro Chorus

  E E s e s s s e      s s   E s s s q s s s e s   E E s e s s s s s e  
+--------------------------+---------------------+---------------------+

---------4----------------
---------------R-----
---------4-----4-5-7-

-----------5-5------------
---5H7-5-4-4H5---7-7-
-----------5-5-------

+-5-4-0-0-------4>-(5)-4P0-+-0-------------------+-5-4-0-0-------------+


  E s s s     q s s s s e   E E s e s s s e      s s  
+-------------------------+--------------------------+

-------------------------
---------4----------------

-5-5-----(5)\4-4H5-5-7-7-
-----------5-5-4>-(5)-5-7-

+-----5/7-----------------+-5-4-0-0------------------+


  E s s s s e s s s s s s s   E E s e s s s s s e   E s s s     q s s s s
e  
+---------------------------+---------------------+-------------------------+

---7-7-------7-------------
---------4-----4-5-7-
-------------------------

-5-----5-4-4---4-4-4H5-5-7-
-----------5-5-------
-5-5-----(5)\4-4H5-5-7-7-

+---------------------------+-5-4-0-0-------------+-----5/7-----------------+


  E E e+h   +w  
+---------+----+

---------
----

---------
----

+-5-4-0---+----+

Lyrics:
When dreaming I'm guided through another world
Time and time again
At sunrise I fight to stay asleep
'Cause I don't want to leave the comfort of this place
'Cause there's a hunger, a longing to escape
>From the life I live when I'm awake
So let's go there
Let's make our escape
Come on, let's go there
Let's ask can we stay
Can you take me higher?
To the place where blind men see
Can you take me higher?
To the place with golden streets
Although I would like our world to change
It helps me to appreciate
Those nights and those dreams
But, my friend, I'd sacrifice all those nights
If I could make the earth and my dreams the same
The only difference is
To let love replace all our hate
So let's go there
Let's make our escape
Come on, let's go there
Let's ask can we stay
Up high I feel like I'm alive for the very first time
Up high I'm strong enough to take these dreams
And make them mine
==========================================================================
                             NOTES
   +
oo
+            -----------------------
   +
oo
+       w = Whole  h = Half  q = Quarter
     
          e = 8th    s = 16th  t = 32nd  x = 64th
     

     
           Capital durations are dotted notes
     
           (equal to 1.5 times the durationvalue)
     

     
             #
     
         +----+                   +----+
  _  
  _      
*--*+  = MEASURE        
4:--
  = TIME
  \\_
_//      
*--*+    REPEATS        
4:--
    SIGNATURES
   
 [] 
       +----+   (#=Num Repeats) +----+
   
 
 

  /  []  \      + = TIE         ^  = TRIPLET           > = BEND
  \______/      H = HAMMER ON   \  = SLIDE TO FRET     R = Rest
                P = PULL OFF    \X = SLIDE TO NOWHERE  ~ = Trill
 


/
How To Set Up Higher Praise As Your Home Page
Copyright 1999, Higher Praise HigherPraise,Inc. All rights reserved. Terms of Use

Enjoy A Life Changing Experience

 
 
 
HigherPraise, Higher Praise, HigherPraise, Higher Praise, HigherPraise

Members..Sign Up. LogIn

 
 

Higher Praise Other Sites
 
 

HigherPraise.org/
Praise And Worship
www.higherpraise.org

HigherPraise.net
Christian Resources
www.higherpraise.net

HigherPraiseTube.com
Videos And Audios
www.higherpraisetube.com.


ChristianLyrics.org

Lyrics And Chrords
www.christianlyrics.org

ChristianChordsLyrics

Lyrics And Chrords
www.christianchordslyrics.com

ChristianChordLyrics

Lyrics And Chrords
www.christianchordlyrics.com

WorshipLyrics.org
10.000 Illustrations
www.worshiplyrics.org

WorshipLyrics.net
10.000 Illustrations
www.worshiplyrics.net

PraiseLyrics.com
PowerPoint Lyrics

www.praiselyrics.com

PraiseLyrics.org
PowerPoint Lyrics

www.praiselyrics.org

1GodTube.com
Chistian Videos

www1godtube..com

OneGodTube.com
Chistian Videos

www.onegodtube..com

 

/
Copyright 1999 - 2019, Higher Praise™ HigherPraise™,Inc. All rights reserved. Terms of Use