Your Touch Tabs by Kutless

Higher Praise - Guitar Chords, Lyrics  GuitarTabs -  Praise nad Worship Music And Christian Songs

Higher Praise - Guitar Tabs, Guitar Chords, Lyrics
   Lyrics, Chords And Tabs
   Popular Lyrics Chords Tab
   Power Point Lyrics
   Praise & Worship Music
   Christian Music Videos
   15900 Videos & Audios
   Midi Files
   Worship Questions
   Christmas Chords, Lyrics
   Lyrics, Chords Tabs Rated

Sermon Outlines And Audio Sermons
   9344 Sermon Outlines
   N.T. Sermon Outlines
   O.T. Sermon Outlines
   Special Guest Outlines
   10.000 Illustrations
   Sunday School Studies
   Bible College Studies
   Greatest Preachers
   Bible Research Tools
Audio Sermons
   2895 Audio Sermons
   85 Sermon Videos
   291 Special Guests Serm

   Complete Audio Bible
Higher Praise Sunday School Teaching
   Children's NT Studies
   Children's OT Studies

   98 Children's Midis
   Gospel For Kids Movie
   Children's JESUS Film
Higher Praise Christian Video Library ,Videos
   Christian Television
   TBN TV Live
   15,000 Videos - HP Tube
   712 Youth Music Vids
  Christian Video Library
   Praise Videos #1 & #2
   85 Sermon Videos
   Prophecy Film -Videos
   JESUS Film -Video
   Childrens JESUS Film
   Gospel For Kids Movie
   Passion Of The Christ
   Noah, Sodom, Sinai, Ark
   Tsunami Videos Photos
News And Information
   Testimonies
   Submit Lyrics, Tabs, Serm
   10.000 Illustrations
   Bible College Course
   Clipart & Web Graphics
   Greatest Preachers
   Complete Talking Bible
   Christian Chat Rooms
   Links Church Resource
   HP Statement Of Faith
Download Clipart
   Audio Sermons
   Clipart & Web Graphics
   Church Administration
   Bible Study Software
   Screen Savers Software
   Verse A Day Software
   Educational Games
   Trade Center Photos

   Soft. Search Engine
Higher Praise News
   Current News
    Archived News
   Submit News
   Newsletter   Higher Praise Interact Prayer
   Prayer For All Needs
   
Submit Lyrics, Sermons
   
Contact Higher Praise
   
Advertising 
   Privacy Policy
//
He Died For You,  Click For Answer! This Is Who Jesus Is Video

'
 
0-9 A B C D E F G H I J K L M N O P Q R S T U V W X Y Z
.

//
Click For Printable...Version Of This File
 

Your Touch


by Kutless

Share |



Your Touch
Kutless

Well I just figured out that we've been going about this song all wrong.
I found a much easier way to play it, and it is 100% accurrate (try it
for yourself!).  Notice in the music video for this song right at the
beginning, if you looking closely, the tallest guy playing guitar is
moving his hand UP, and not DOWN.  Here's what the tab is....

Drop D
< = Slide
x = Mute


Intro
--------------------------------------------------------------------
--------------------------------------------------------------------
--------------------------------------------------------12----------
---------5--8--5------<--------8--10--8--<----------10------10------
------5-----------5---<-----8------------<------10--------------10--
---5------------------<--8---------------<--10----------------------


------------------------------------------
------------------------------------------
-----------10-----------------------------    repeat 4x (I think...)
--------8------8--------------------------
-----8------------8-----------------------
--8---------------------------------------


Distortion kicks in
--------------------------------------
--------------------------------------
-----------------------(3--2----------  x2
--1------3------5-------------3)------
--1------3------5---------------------
--1------3------5---------------------


Chorus
-------------------------------------------------------------------------
-------------------------------------------------------------------------
-------------------------------------------------------------------------
---5--5--5--5<8--8--8---3--3--3333--xx-1---------------------------------
---5--5--5--5<8--8--8---3--3--3333--xx-1---------------------------------
---5--5--5--5<8--8--8---3--3--3333--xx-1---------------------------------


Bridge
This part is very similar to the intro to the song Tonight.  It's pretty
easy, you just have to mess around with some fingerings to get it right,
so i'm not going to tab that part

Yelling Part (the one long yell).  This part goes kinda fast
---------------------------------------------------
---------------------------------------------------
---------------------------------------------------
----0--5--0--7-5-3--------------------------------- 
----0--5--0--7-5-3---------------------------------
----0--5--0--7-5-3---------------------------------
Repeat that part until the lead singer goes back to the 'I reach out...'
part, and then you go back to the chorus.  

Have fun

BRian
 


/
How To Set Up Higher Praise As Your Home Page
Copyright 1999, Higher Praise HigherPraise,Inc. All rights reserved. Terms of Use

Enjoy A Life Changing Experience

 
 
 
HigherPraise, Higher Praise, HigherPraise, Higher Praise, HigherPraise

Members..Sign Up. LogIn

 
 

Higher Praise Other Sites
 
 

HigherPraise.org/
Praise And Worship
www.higherpraise.org

HigherPraise.net
Christian Resources
www.higherpraise.net

HigherPraiseTube.com
Videos And Audios
www.higherpraisetube.com.


ChristianLyrics.org

Lyrics And Chrords
www.christianlyrics.org

ChristianChordsLyrics

Lyrics And Chrords
www.christianchordslyrics.com

ChristianChordLyrics

Lyrics And Chrords
www.christianchordlyrics.com

WorshipLyrics.org
10.000 Illustrations
www.worshiplyrics.org

WorshipLyrics.net
10.000 Illustrations
www.worshiplyrics.net

PraiseLyrics.com
PowerPoint Lyrics

www.praiselyrics.com

PraiseLyrics.org
PowerPoint Lyrics

www.praiselyrics.org

1GodTube.com
Chistian Videos

www1godtube..com

OneGodTube.com
Chistian Videos

www.onegodtube..com

 

/
Copyright 1999 - 2019, Higher Praise™ HigherPraise™,Inc. All rights reserved. Terms of Use