Last Christmas Tabs by Hawk Nelson

Higher Praise - Guitar Chords, Lyrics  GuitarTabs -  Praise nad Worship Music And Christian Songs

Higher Praise - Guitar Tabs, Guitar Chords, Lyrics
   Lyrics, Chords And Tabs
   Popular Lyrics Chords Tab
   Power Point Lyrics
   Praise & Worship Music
   Christian Music Videos
   15900 Videos & Audios
   Midi Files
   Worship Questions
   Christmas Chords, Lyrics
   Lyrics, Chords Tabs Rated

Sermon Outlines And Audio Sermons
   9344 Sermon Outlines
   N.T. Sermon Outlines
   O.T. Sermon Outlines
   Special Guest Outlines
   10.000 Illustrations
   Sunday School Studies
   Bible College Studies
   Greatest Preachers
   Bible Research Tools
Audio Sermons
   2895 Audio Sermons
   85 Sermon Videos
   291 Special Guests Serm

   Complete Audio Bible
Higher Praise Sunday School Teaching
   Children's NT Studies
   Children's OT Studies

   98 Children's Midis
   Gospel For Kids Movie
   Children's JESUS Film
Higher Praise Christian Video Library ,Videos
   Christian Television
   TBN TV Live
   15,000 Videos - HP Tube
   712 Youth Music Vids
  Christian Video Library
   Praise Videos #1 & #2
   85 Sermon Videos
   Prophecy Film -Videos
   JESUS Film -Video
   Childrens JESUS Film
   Gospel For Kids Movie
   Passion Of The Christ
   Noah, Sodom, Sinai, Ark
   Tsunami Videos Photos
News And Information
   Testimonies
   Submit Lyrics, Tabs, Serm
   10.000 Illustrations
   Bible College Course
   Clipart & Web Graphics
   Greatest Preachers
   Complete Talking Bible
   Christian Chat Rooms
   Links Church Resource
   HP Statement Of Faith
Download Clipart
   Audio Sermons
   Clipart & Web Graphics
   Church Administration
   Bible Study Software
   Screen Savers Software
   Verse A Day Software
   Educational Games
   Trade Center Photos

   Soft. Search Engine
Higher Praise News
   Current News
    Archived News
   Submit News
   Newsletter   Higher Praise Interact Prayer
   Prayer For All Needs
   
Submit Lyrics, Sermons
   
Contact Higher Praise
   
Advertising 
   Privacy Policy
//
He Died For You,  Click For Answer! This Is Who Jesus Is Video

'
 
0-9 A B C D E F G H I J K L M N O P Q R S T U V W X Y Z
.

//
Click For Printable...Version Of This File
 

Last Christmas


by Hawk Nelson

Share |



Song: Last Christmas
Artist: Hawk Nelson
Album: Happy Christmas (volume 4)

I first heard this song in the radio, and it is pretty cool, so i decide to
tab it out. I think the Album where it came from is put together by Tooth and Nail.

The Whole song: if I am not mistaken it is all
C Am Dm G this is for people who cannot read tabs :D

Intro:
Rythm Guitar-Palm mute 
     C (C5)      Am (A5)       Dm (D5)      G (G5)
e-----------------------------------------------------
B-----------------------------------------------------
G-555555555555--------------777777777777--------------
D-555555555555-777777777777-777777777777-555555555555-
A-333333333333-777777777777-555555555555-555555555555-
E--------------555555555555--------------333333333333-

Lead Guitar
e----------------------------------------------------------
B---8---------------------8-5---------8-5------------------
G-------------4-5-7-5---------5-----------5----------------
D-5~--5~--5-7---------7~--------7-----------7-5~-----------
A---------------------------------8~--------------8-7-5----
E-------------------------------------------------------8~-


Verses: I dunno maybe it is choruses, but so u know its the part
        after the intro.

e-----------------------------------------------------
B-----------------------------------------------------
G-555555555555--------------777777777777--------------
D-555555555555-777777777777-777777777777-555555555555-
A-333333333333-777777777777-555555555555-555555555555-
E--------------555555555555--------------333333333333-


Break: or chorus- the part after the "verse"
with delay... 
e---------------------------------------------
B-------3-----------1-----------3-----------0-
G---5---------4---4-------5---5-------5---5---
D---------------------------------------------
A-3---3-----0---0-------5---5-----------------
E-----------------------------------3---3-----

there is a piano/synth sounding thing the second time around on the first 
break.

note: this is one octave lower than what it is cuz my guitar cant 
      hit some of the notes being played

e--------------------------8--10------8~--10-------8--10-------13~-15~--
B-8--10-----8~--10-----(2x)------8-10--------8-10--------8-10-----------
G-------7-9-------7-9---------------------------------------------------

Then "Verses"... 
Then Break again but only once... 
then the piano sounding thing again by itself
one octave lower with a slight variation like this

e--------------------------8--10------8~--10-------------13-12~-
B-8--10-----8~--10-----(2x)------8-10--------8-10---(2x)---------
G-------7-9-------7-9--------------------------------------------

After that the intro...
then everything drops of for like about 24 counts then the play Dm G
then Intro, but with singing

that is pretty much it, I hope i communicated the song well, because if
I am pretty sure all the parts of the song is in this tab. I hope You like
it and u understood me.



God BLess.
 


/
How To Set Up Higher Praise As Your Home Page
Copyright 1999, Higher Praise HigherPraise,Inc. All rights reserved. Terms of Use

Enjoy A Life Changing Experience

 
 
 
HigherPraise, Higher Praise, HigherPraise, Higher Praise, HigherPraise

Members..Sign Up. LogIn

 
 

Higher Praise Other Sites
 
 

HigherPraise.org/
Praise And Worship
www.higherpraise.org

HigherPraise.net
Christian Resources
www.higherpraise.net

HigherPraiseTube.com
Videos And Audios
www.higherpraisetube.com.


ChristianLyrics.org

Lyrics And Chrords
www.christianlyrics.org

ChristianChordsLyrics

Lyrics And Chrords
www.christianchordslyrics.com

ChristianChordLyrics

Lyrics And Chrords
www.christianchordlyrics.com

WorshipLyrics.org
10.000 Illustrations
www.worshiplyrics.org

WorshipLyrics.net
10.000 Illustrations
www.worshiplyrics.net

PraiseLyrics.com
PowerPoint Lyrics

www.praiselyrics.com

PraiseLyrics.org
PowerPoint Lyrics

www.praiselyrics.org

1GodTube.com
Chistian Videos

www1godtube..com

OneGodTube.com
Chistian Videos

www.onegodtube..com

 

/
Copyright 1999 - 2019, Higher Praise™ HigherPraise™,Inc. All rights reserved. Terms of Use